Misc Unsigned Bands - Uglyface - Aula Extra Chords & Tabs

 

Uglyface - Aula Extra Chords & Tabs

Misc Unsigned Bands Chords & Tabs

Version: 1 Type: Tab 0 ratings
1 star 2 stars 3 stars 4 stars 5 stars
comments

Uglyface - Aula Extra Tab

   
Standard Tuning
 
Intro

e|--------------------------------------------------------|
B|--------------------------------------------------------|    
G|--------------------------------------------------------| Play this twice
D|----------------0-0-0-0-0-0-2-2-2-2-2-2-----------------|
A|----------------------------------------3-3-3-3-3-3--3-0|
E|----3-3-3-3-3-3-----------------------------------------|


Chords:
G:   320033
D:   xx0232
Em:  022000
C:   032010


G
Uma aula extra

D
Aquele Cabrão queria dar

Em
Mas o que ele precisa

C
É alguem para o enrabar



G
Quando ele arranjar

D
Alguém para o enrrabar

Em
De Tal maneira vai gostar

C
Que ate vai guinchar

[ Tab from: http://www.guitartabs.cc/tabs/m/misc_unsigned_bands/uglyface_aula_extra_tab.html ]
CHORUS

G
O Atílio gosta d'apanhar cavacos

D
Gosta de levar no cu

Em
Sabonetes vai apanhar 

C
vai virar para cá o cu

Riff 1
E a piroca vai entrar        e|---------------|
			 B|---------------|    			 
			 G|---------------| Riff 1
			 D|------0-2------|
			 A|----------3----|
			 E|----3----------|                 



G
A aula extra já acabou

D
Ele tanto no cú levou

Em
Ele tanto gritou

C
Que ate um olho lhe saltou



G
Porque que é que o olho lhe saltou

D
Porque a piroca entrou

Em
E os pulmões furou

C
E o Atílio enrrabou


Chorus X 2


That's it. As you can see is very hard.
This is my first tab ever, and though the song is very basic the tab is 100% correct.
Comments