Misc Unsigned Bands - Twisted Metal - Kick Some Ass Chords & Tabs

 

Twisted Metal - Kick Some Ass Chords & Tabs

Misc Unsigned Bands Chords & Tabs

Version: 1 Type: Tab 0 ratings
1 star 2 stars 3 stars 4 stars 5 stars
comments

Twisted Metal - Kick Some Ass Tab

   
This is our newest song, and will be on our album, "Fight Club"

Tuning: Drop Down  Step
Eb Bb Gb Db Ab Eb

| /     Slide up
| \     Slide down
| h     Hammer-on
| /( )  Play note and slide up
| \( )  Play note and slide down
| p     Pull-off
| ~     Let Ring
| X     Mute note



Intro
Eb|---------------------------------|
Bb|-------------------------8-----5-|
Gb|---0-------------7-------9-----5-|
Db|-x-0-----5-----7-8-7-8-7-9-10-9-5-|
Ab|-x---5-5-5-5-5-5-5-5-5-5-7-7-7-3-|
Eb|-x---3-2-3-2-3-------------------|

Rhythm Figure 1
Eb|-----------------------------------------|
Bb|-------------------------8----5---5------|
Gb|----------------7--------9----5---5------|
Db|-5---5------7-7-7-7-7--9-9-9--5---5--7-7-|
Ab|-5-5-5-5-5--5-5-5-5-5--7-7-7--3---3--5-5-|
Eb|-3-3-3-3-3-------------------------------|
      x   x x  x x   x x  x   x         x x

Rhythm Figure 2
Eb|-----------------------------------------|
Bb|-------------------------8----5---5------|
Gb|----------------7--------9----5---5------|
Db|-----5------7-7-7-7-7--9-9-9--5---5--7-7-|
Ab|-5-5-5-5-5--5-5-5-5-5--7-7-7--3---3--5-5-|
Eb|-3-3-3-3-3-------------------------------|
    x x   x x  x x   x x  x   x         x x

Fill
Eb|----|
Bb|-5\-|
Gb|-5\-|
Db|-5\-|
Ab|-3\-|
Eb|----|
[ Tab from: http://www.guitartabs.cc/tabs/m/misc_unsigned_bands/twisted_metal_kick_some_ass_tab.html ]
Chorus
Eb|--------------------------------------------------------------|
Bb|------------------5-5-5-5-5-5-5-5-------------------5-5-5-5-5-|
Gb|-2-2-2-2-2-2-2-2--5-5-5-5-5-5-5-5--2-2-2-2-2-2-2-2--5-5-5-5-5-|
Db|-2-2-2-2-2-2-2-2--5-5-5-5-5-5-5-5--2-2-2-2-2-2-2-2--5-5-5-5-5-|
Ab|-1-1-1-1-1-1-1-1--3-3-3-3-3-3-3-3--0-0-0-0-0-0-0-0--3-3-3-3-3-|
Eb|--------------------------------------------------------------|

Guitar Solo
Eb|3-----------5-----------3-3-----5--3-3-3-3-3-3-3--5-5-5-5--3-3-3-3-3-----------------------|
Bb|---3-----3-----3-----3--3-3-----3--3-3-3-3-3-3-3--3-3-3-3--3-3-3-3-3----5-5-5--/(15)-------|
Gb|------0-----------0-----0-0--0--0--0-0-0-0-0-0-0--0-0-0-0--0-0-0-0-0-/4-4-4h5--------------|
Db|-------------------------------------------------------------------------------------------|
Ab|-------------------------------------------------------------------------------------------|
Eb|--------------------------------------------------------------------------------------\(12)|

Outro
Eb|--------------------------------------|
Bb|-------------------------8----5~~~~~~-|
Gb|----------------7--------9----5~~~~~~-|
Db|-----5------7-7-7-7-7--9-9-9--5~~~~~~-|
Ab|-5-5-5-5-5--5-5-5-5-5--7-7-7--3~~~~~~-|
Eb|-3-3-3-3-3----------------------------|
    x x   x x  x x   x x  x   x

Order:
Intro            1x
Rhythm Figure 1  1x
Rhythm Figure 2  8x
Fill             1x
Chorus           1x
Rhythm Figure 1  1x
Rhythm Figure 2  8x
Fill             1x
Chorus           1x
Rhythm Figure 1  1x
Rhythm Figure 2  1x (Guitar 2 Plays 3x)
Guitar Solo      1x
Rhythm Figure 1  1x
Rhythm Figure 2  2x
Outro            1x
Comments