Misc Unsigned Bands - Trashhunters - About You Chords & Tabs

 

Trashhunters - About You Chords & Tabs

Misc Unsigned Bands Chords & Tabs

Version: 1 Type: Tab 0 ratings
1 star 2 stars 3 stars 4 stars 5 stars
comments

Trashhunters - About You Tab

Trashhunters - About You
Website:www.trashhunters.tk
Tuning: Standard(EBGDAE)
Tabbed by Silverrocker
INTRO:(00:00)
E|----------------|
B|----------------|
G|----------------|
D|--x---x--x-x-x-x|
A|--x---x--x-x-x-x|
E|--x---x--x-x-x-x|
(00:02)
E|-----------------------------------|
B|-----------------------------------|
G|-----------------------------------|
D|-----------------------------------|
A|--555-------------5555-------------|
E|------555-777-555-----5-55-777-333-|
  PM---------------------------------|

E|-----------------------------------|
B|-----------------------------------|
G|-----------------------------------|
D|-----------------------------------|
A|--555------------------------------|
E|------555-777-555-55555555555555555|
  PM---------------------------------|

VERSE:(00:13)

E|-----------------------------------|
B|-----------------------------------|
G|--7777------------7777-------------|
D|--7777777799997777777777779999-5555|
A|--5555777799997777555577779999-5555|
E|------555577775555----55557777-3333|
  PM---------------------------------|

E|-----------------------------------|
B|-----------------------------------|
G|--7777-----------------------------|
D|--777777779999777777777777777777777|
A|--555555559999777777777777777777777|
E|------55557777555555555555555555555|
  PM---------------------------------|

E|-----------------------------------|
B|-----------------------------------|
G|--7777-----------------------------|
D|--777777779999777777777777777777777|
A|--555555559999777777777777777777777|
E|------55557777555555555555555555555| 
  PM---------------------------------|

BRIDGE(00:24)

E|-----------------------------------|
B|-----------------------------------|
G|--7799----7-799--------------------|
D|--77999-9-7-7779-9-----------------|
A|--55779-9-5-5779-9-----------------|
E|------7-7------7-7-----------------|


E|-----------------------------------|
B|-----------------------------------|
G|------5-5-------5-5----------------|
D|--77555-5-7-7553-3-----------------|
A|--77553-3-7-7553-3-----------------|
E|--5533----5-533--------------------|

E|-----------------------------------|
B|-----------------------------------|
G|--7799----7-799--------------------|
D|--77999-9-7-7779-9-----------------|
A|--55779-9-5-5779-9-----------------|
E|------7-7------7-7-----------------|

E|-----------------------------------|
B|-----------------------------------|
G|-----------------------------------|
D|--555577777------------------------|
A|--555577777------------------------|
E|--333355555------------------------|

CHORUS:(00:34)
E|-----------------------------------|
B|-----------------------------------|
G|---7777------------7777------------|
D|---77777-7-555-7-7-77777-7-555-7-7-| x2
A|---55557-7-555-7-7-55557-7-555-7-7-|
E|-------5-5-333-5-5-----5-5-333-5-5-|

E|-----------------------------------|
B|-----------------------------------|
G|---7777------------77777-7-7-------|
D|---77777-7-5/7-----77777-7-7-------| 
A|---55557-7-5/7-----55555-5-5-------|
E|-------5-5-3/5---------------------|

VERSE2:(00:45)
E|-----------------------------------|
B|-----------------------------------|
G|--7777------------7777-------------|
D|--7777777799997777777777779999-5555|
A|--5555777799997777555577779999-5555|
E|------555577775555----55557777-3333|
  PM---------------------------------|

E|-----------------------------------|
B|-----------------------------------|
G|--7777-----------------------------|
D|--777777779999777777777777777777777|
A|--555555559999777777777777777777777|
E|------55557777555555555555555555555|
  PM---------------------------------|
[ Tab from: http://www.guitartabs.cc/tabs/m/misc_unsigned_bands/trashhunters_about_you_tab.html ]
E|-----------------------------------|
B|-----------------------------------|
G|--7777-----------------------------|
D|--777777779999777777777777777777777|
A|--555555559999777777777777777777777|
E|------55557777555555555555555555555| 
  PM---------------------------------|
BRIDGE(00:56)

E|-----------------------------------|
B|-----------------------------------|
G|--7799----7-799--------------------|
D|--77999-9-7-7779-9-----------------|
A|--55779-9-5-5779-9-----------------|
E|------7-7------7-7-----------------|


E|-----------------------------------|
B|-----------------------------------|
G|------5-5-------5-5----------------|
D|--77555-5-7-7553-3-----------------|
A|--77553-3-7-7553-3-----------------|
E|--5533----5-533--------------------|

E|-----------------------------------|
B|-----------------------------------|
G|--7799----7-799--------------------|
D|--77999-9-7-7779-9-----------------|
A|--55779-9-5-5779-9-----------------|
E|------7-7------7-7-----------------|

E|-----------------------------------|
B|-----------------------------------|
G|-----------------------------------|
D|--555577777------------------------|
A|--555577777------------------------|
E|--333355555------------------------|

CHORUS:(01:07)
E|-----------------------------------|
B|-----------------------------------|
G|---7777------------7777------------|
D|---77777-7-555-7-7-77777-7-555-7-7-| x2
A|---55557-7-555-7-7-55557-7-555-7-7-|
E|-------5-5-333-5-5-----5-5-333-5-5-|

E|-----------------------------------|
B|-----------------------------------|
G|---7777------------77777-7-7-------|
D|---77777-7-5/7-----77777-7-7-------| 
A|---55557-7-5/7-----55555-5-5-------|
E|-------5-5-3/5---------------------|

Now continue looping this as the song goes
Here is the solo
SOLO:(01:28)

E|--10-7--10-------------------------|
B|------10--10-7-10-7-7--------------|
G|-------------------9-97977-777-----|
D|-----------------------------------|
A|-----------------------------------|
E|-----------------------------------|


E|-----------------------------------|
B|-----------------------------------|
G|--977-777--77-777-977-7777---------|
D|----------9------------------------|
A|-----------------------------------|
E|-----------------------------------|
			    let ring... x2
And finally you need to know 2 more things:
At (1:50) you play this:

E|-----------------------------------|
B|-----------------------------------|
G|----7---7--------------------------|
D|---7---7----7---7----9---9---------|
A|--5---5--5-7---7----9---9----------|
E|----------5---5--5-7---7--7--------|



E|-----------------------------------|
B|-----------------------------------|
G|-----------------------------------|
D|--5555557--------------------------|
A|--5555557--------------------------|
E|--3333335--------------------------|

E|-----------------------------------|
B|-----------------------------------|
G|----7---7--------------------------|
D|---7---7----7---7----9---9---------|
A|--5---5--5-7---7----9---9----------|
E|----------5---5--5-7---7--7--------|

E|-----------------------------------|
B|-----------------------------------|
G|-----------------------------------|
D|--555577777------------------------|
A|--555577777------------------------|
E|--333355555------------------------|

OUTRO:(02:40)

E|-----------------------------------|
B|-----------------------------------|
G|---7777------------7777------------|
D|---77777-7-555-7-7-77777-7-5/7/9/12|
A|---55557-7-555-7-7-55557-7-5/7/9/12|
E|-------5-5-333-5-5-----5-5-3/5/7/10|


whit all this you should be able to play the hole song.
good luck



SILVERROCKERS COMMENT:
Hey Im the guitarist of Trashhunters
If you want to hear this song you can listen to the song on our website
www.trashhunters.tk by using the TrAsHpLaYeR in the left lower corner.
I hope you will like it but may point out that you shouldn't mind the cr*p sound
quallity. If you find any mistakes in the tab above that I made while tabbing please
send me an email at: silverrocker@gmail.com. 
thx
Comments