Misc Unsigned Bands - Tijuana Pimps - Chupa Cabra Chords & Tabs

 

Tijuana Pimps - Chupa Cabra Chords & Tabs

Misc Unsigned Bands Chords & Tabs

Version: 1 Type: Tab 0 ratings
1 star 2 stars 3 stars 4 stars 5 stars
comments

Tijuana Pimps - Chupa Cabra Tab

the tijuana pimps play in guam and are a mexican surf/ hardcore band
shows are packed!!! they play at casa on sunday nights
they should be recording in the spring of 2005
they got 2 bass players two drummers two guitars and vocals are shared kinda mariachi style.


start off slow and muffled then by the fourth bar strum open with alot of distortion and reverb

-----------------------------------------------------------------|
-----------------------------------------------------------------|
-----------------------------------------------------------------|
-----------------------------------------------------------------|
-----4-4-4-4--5555--6666-7777------------------------------------|
-----2-2-2-2--3333--4444-5555--X2--------------------------------|

[ Tab from: http://www.guitartabs.cc/tabs/m/misc_unsigned_bands/tijuana_pimps_chupa_cabra_tab.html ]
--------------------------------------------------------------------|
--------------------------------------------------------------------|
--------------------------------------------------------------------|
--------------------------------------------------------------------|
-----4444-5555-6666-7777--------------------------------------------|
-----2222-3333-4444-5555---x2---------------------------------------|
  mire afuera el sangre en el piso
  todos mis cabras estan muertes

--chorus----------------------------------------------------------------|
------------------------------------------------------------------------|
------------------------------------------------------------------------|
-----1414141414---------------------------------------------------------|
-----1212121212X4-------------------------------------------------------|
------------------------------------------------------------------------|
   CHUPACABRAx3
repeat ist part

coro para mi vida
chupa cabra me obtuvo!!

chorus

--------------------------------------------------------------------|
--------------------------------------------------------------------|
--------------------------------------------------------------------|
---4---8--4--8--4--8--4---------------------------------------------|
---2---6--2--6--2--6--2--X4-----------------------------------------|
--------------------------------------------------------------------|

this is a great song and if not played correctly it will sound like garbage.
the tijuana pimps play on guam and truly rock the island!!!
submitted by Blanco of the tijuana pimps
bsitwah@hotmail.com
Comments