Misc Unsigned Bands - This Side Down - The Enemy Is Know Chords & Tabs

 

This Side Down - The Enemy Is Know Chords & Tabs

Misc Unsigned Bands Chords & Tabs

Version: 1 Type: Tab 0 ratings
1 star 2 stars 3 stars 4 stars 5 stars
comments

This Side Down - The Enemy Is Know Tab

---------------------------------------------------------------------------
                  The Enemy is Know - This Side Down
---------------------------------------------------------------------------
Tabbed by: Robert Lydecker
Email: kingjamesthesecond@yahoo.com

Unlike the rest of the This Side Down songs this one is actually a good 
song with a lot of thought put into it.

Tuning: Standard

Intro/Verses:
Rythem Guitar
|------------------------------------------------------------------------|
|------------------------------------------------------------------------|
|-9----11---12----5----7----4--------------------------------------------|
|-X-x8-X-x3-X--x5-X-x8-X-x3-X-x8-7----4----5-----------------------------|X2
|-7----9----10----3----5----2----X-x8-X-x3-X-x8--------------------------|
|--------------------------------5----2----3-----------------------------|

Lead Guitar
|-9~~11~12~5~~7~4~-------|
|-----------------7~~5~4~|
|------------------------|
|------------------------|x2
|------------------------|
|------------------------|
[ Tab from: http://www.guitartabs.cc/tabs/m/misc_unsigned_bands/this_side_down_the_enemy_is_know_tab.html ]
Fill 1:
Both Guitars
|------------------------------------------------------------------------|
|------------------------------------------------------------------------|
|------------------------------------------------------------------------|
|444/555-444/555-444/555-4-4-4-------------------------------------------|X2
|XXX/XXX-XXX/XXX-XXX/XXX-X-X-X-------------------------------------------|
|222/333-222/333-222/333-2-2-2-------------------------------------------|

Chorus: (strumming is a little weird)
Both Guitars
|------------------------------------------------------------------------|
|------------------------------------------------------------------------|
|------------------------------------------------------------------------|
|9-999-9999-16-16-16-16--13-13-13-13-13----------------------------------|x4
|7-777-7777-14-14-14-14--11-11-11-11-11----------------------------------|
|5-555-5555-12-12-12-12--9--9--9--9--9-----------------------------------|

Fill 2:
Rythem Guitar
|------------------------------|
|------------------------------|
|------------------------------|
|------10-9-10-12-10-9-10-9----|x4
|-0-12----------------------10-|
|------------------------------|


Bridge:
Rythem Guitar (Chords)
|----------|
|----------|
|------5-7-|
|7-4-2-5-7-|x4
|7-4-2-3-5-|
|5-2-0-----|

Lead (very fast picking)
|-0-9-0-5-0-4-0-5-0-7-0-5-0-4-0-5-|
|---------------------------------|
|---------------------------------|
|---------------------------------|(keep repeating through bridge)
|---------------------------------|
|---------------------------------|


Song Order:
Intro/Verse x2
Fill 1 x2
Chorus x4
Intro/Verse x2
Fill 1 x2
Chorus x4
Fill 2 x4
Bridge x4
Chorus x4
Comments