Misc Unsigned Bands - The West Side Of Saturday - Innocently Proven Guilty Chords & Tabs

 

The West Side Of Saturday - Innocently Proven Guilty Chords & Tabs

Misc Unsigned Bands Chords & Tabs

Version: 1 Type: Tab 0 ratings
1 star 2 stars 3 stars 4 stars 5 stars
comments

The West Side Of Saturday - Innocently Proven Guilty Tab

   
Okey..... This is my first tab.  The West Side Of Saturday is a local band that i've
heard recently and their Really GOOD!  they just started off but so far they are doing
really well.


Intro....

          Am               Em        D           C            G
e| ----------------------------------2----------------------------------------|
B|---------1----------------------3------------1------------------------------|
G|------2----2------------0----2------------0------------0---------2----------|
D|---2---------2--------2----0------------2------------0---------0------------|     x2
A|-0------------------2------------------3------------2------0-3--------------|
E|------------------0--------------------------------3------------------------|
[ Tab from: http://www.guitartabs.cc/tabs/m/misc_unsigned_bands/the_west_side_of_saturday_innocently_proven_guilty_tab.html ]
Verse 1
     Em              D        Dsus              A
e|----------2-2-2-2-2-2--3---2-2---0------------------|
B|----------3-3-3-3-3-3--3---3-3---2-2-2-2------------|
G|----------2-2-2-2-2-2--2---2-2---2-2-2-2------------|
D|-2-2---------------------------------2-2-2-2--------|     x8
A|-2-2------------------------------------------------|
E|-0-0------------------------------------------------|

Chorus
               D     Dsus
e|-2-2-2--3------0---------------------------------|
B|-3-3-3--3------2-2-2-3---------------------------|
G|-2-2-2--2------2-2-2-2---------------------------|
D|------------------------------2-2-2-2-2----------|       x4
A|------------------------------2-2-2-2-2----------|
E|------------------------------0-0-0-0-0----------|

e|------------------------------------------------------------------------------------|
B|--3-3-3-3--2-2-2-2--3-3-3-3--2-2-2-2--3-3-3-3--2-2-2-2--3-3-3-3--2------------------|
G|--2-2-2-2--2-2-2-2--2-2-2-2--2-2-2-2--2-2-2-2--2-2-2-2--2-2-2-2--2------------------|
D|------------------------------------------------------------------------------------|
A|------------------------------------------------------------------------------------|
E|------------------------------------------------------------------------------------|

Pause for about 5 seconds
Verse x6
Chorus
Slowly strum versex2.....then end

There done...hope ya like it!
Comments