Misc Unsigned Bands - The Sound Asleep - Last Year Chords & Tabs

 

The Sound Asleep - Last Year Chords & Tabs

Misc Unsigned Bands Chords & Tabs

Version: 1 Type: Bass Tab 0 ratings
1 star 2 stars 3 stars 4 stars 5 stars
comments

The Sound Asleep - Last Year Bass Tab

----------------------------------------------------------------------
		 LAST YEAR - THE SOUND ASLEEP      
----------------------------------------------------------------------

The Sound Asleep from Palm Desert, CA.
http://www.myspace.com/thesoundasleepband

Taken from the bass player of the band, so the notes should be accurate.
Tabbed By : Paul Stalma
e-mail: Mediocore1984@hotmail.com

Tuning: Standard

Intro:   0:20  
G|--------------------------------------------------|
D|--------------------------------------------------|
A|------2---------------2---------------------------|
E|--0-------4---5---0-------4-----------------------|

Pre Chorus:   0:32
G|--------------------------------------------------|
D|--------------------------------------------------|
A|--------------------------------------------------|
E|--22----55----22----55---7777---------------------|

Chorus:       0:46
G|--------------------------------------------------|
D|--------------------------------------------------|
A|--------------------------------------------------|
E|--22222222222222225555555555555555----------------|

G|--------------------------------------------------|
D|--------------------------------------------------|
A|--------------------------------------------------|
E|--222222222222224-5555555577777777----------------|

G|-------------------------------------------------------------|
D|-------------------------------------------------------------|
A|----------22222224444444--------------22222224444444---------|
E|--00000000--------------55555550000000--------------5555555--|

Bass/Piano Solo  1:11
G|-----------------------------------------------------|
D|-----------------------------------------------------|
A|-----------------------------------------------------|
E|--0----------------00000000000000000000000000000000--|

Verse 1:23
G|-------------------------------------------------------------------|
D|-------------------------------------------------------------------|
A|--44444444444444440000000000000000----------------2222222222222222-|
E|----------------------------------0000000000000000-----------------|
[ Tab from: http://www.guitartabs.cc/tabs/m/misc_unsigned_bands/the_sound_asleep_last_year_btab.html ]
G|--------------------------------------------------------|
D|--------------------------------------------------------|
A|--44444444444444440000000000000000----------------------|
E|----------------------------------0000000000000000------|

G|--------------------------------------------------------|
D|--------------------------------------------------------|
A|--222222222222222244444444444444440000000000000000------|
E|--------------------------------------------------------|

Pre Chorus:   1:54
G|--------------------------------------------------|
D|--------------------------------------------------|
A|--------------------------------------------------|
E|--22----55----22----55---77777--------------------|

Chorus       2:07
G|--------------------------------------------------|
D|--------------------------------------------------|
A|--------------------------------------------------|
E|--22222222222222225555555555555555----------------|

G|--------------------------------------------------|
D|--------------------------------------------------|
A|--------------------------------------------------|
E|--222222222222224-5555555577777777----------------|

G|-------------------------------------------------------------|
D|-------------------------------------------------------------|
A|------------------2222222222222244444444444444---------------|
E|--0000000000000000----------------------------55555555555555-|

Outro 2:33
G|---------------------------------------------------|
D|---------------------------------------------------|
A|--------22----44-----------------------------------|
E|--00----------------5555555555555555---------------|

G|--------------------------------------------------------------|
D|--------------------------------------------------------------|
A|------------------2222222222222244444444444444----------------|
E|--0000000000000000----------------------------55555555555555--|

G|--------------------------------------------------------------|
D|--------------------------------------------------------------|
A|------------------2222222222222244444444444444----------------|
E|--0000000000000000----------------------------555555555555550-|
Comments