Misc Unsigned Bands - The Sound Asleep - Insert Song Title Here Chords & Tabs

 

The Sound Asleep - Insert Song Title Here Chords & Tabs

Misc Unsigned Bands Chords & Tabs

Version: 1 Type: Bass Tab 0 ratings
1 star 2 stars 3 stars 4 stars 5 stars
comments

The Sound Asleep - Insert Song Title Here Bass Tab

----------------------------------------------------------------------------
	        INSERT SONG TITLE HERE - THE SOUND ASLEEP
----------------------------------------------------------------------------
The Sound Asleep from Palm Desert, CA.
http://www.myspace.com/thesoundasleepband

Taken from the bass player of the band, so the notes should be accurate.

Tabbed By : Paul Stalma
e-mail: mediocore1984@hotmail.com

Tuning: Standard

Intro (After Guitar) 0:08
G|-------------------------------| x2
D|-------------------------------|
A|--33---------------------------|
E|-----33-355-33-311-11-133------|


Bridge    0:17
G|------------------------------------| x1
D|------------------------------------|
A|--33--------------33----------------|
E|------33--55--11------33--55--1111--|


Verse     0:25
G|--------------------------------|  x4
D|--------------------------------|
A|--33----------------------------|
E|------33--55--1111--------------|


Chorus    0:42
G|-------------------------|  x3
D|-------------------------|
A|-------------------------|
E|--5555333311111111-------|
[ Tab from: http://www.guitartabs.cc/tabs/m/misc_unsigned_bands/the_sound_asleep_insert_song_title_here_btab.html ]
G|------------------------------|  x1
D|------------------------------|
A|------------------------------|
E|--555533331111111133333333----|


Intro Again    1:05
G|-------------------------------| x2
D|-------------------------------|
A|--33---------------------------|
E|-----33-355-33-311-11-133------|


Verse     1:14
G|--------------------------------|  x4
D|--------------------------------|
A|--33----------------------------|
E|------33--55--1111--------------|


Chorus    1:31
G|-------------------------|  x3
D|-------------------------|
A|-------------------------|
E|--5555333311111111-------|

G|------------------------------|  x1
D|------------------------------|
A|------------------------------|
E|--555533331111111133333333----|


Guitar Solo 1:50

G|------------------------------------|  x2
D|------------------------------------|
A|----------3333-33-------------------|
E|--5555-55---------1111-11-33333333--|

G|------------------------------------|  x4
D|------------------------------------|
A|----------33333333------------------|
E|--55555555--------1111111133333333--|
Comments