Misc Unsigned Bands - The Remo Stevens Movement - What A Word Chords & Tabs

 

The Remo Stevens Movement - What A Word Chords & Tabs

Misc Unsigned Bands Chords & Tabs

Version: 1 Type: Bass Tab

The Remo Stevens Movement - What A Word Bass Tab

   
~ = hold

INTRO

G-----------------------------------------------------------------------|
D-----7-------5--------2----3-----5--5----------------------------------|
A---------------------------------------------------5----------2--------|
E-5~-5-5--3~-3-3--0~-0-0--11-1--33-33---55555555-333-333333-000-000000--|
[ Tab from: http://www.guitartabs.cc/tabs/m/misc_unsigned_bands/the_remo_stevens_movement_what_a_word_btab.html ]
G------------------------------------------------------|
D----------------7777-----5555-----2222---3----5-------|
A---3----5----567------345------012------1-1--3-3------|
E-11-1-33-3-55-------33-------00--------1----3---5-----|


VERSE(x4)

G---------------------------------|
D---------------------------------|
A---------------------------------|
E-555555-333333-0000000-11-1-33-3-|

CHORUS

G-------------------------------|
D-------------------------------|
A-77-7-33-3-----------777777-3--|
E----------333333-(x3)--------3-|

LAST CHORUS
G------------------------------5-------|
D--------------------------------5--7--|
A-77-7-33-3-----------777777--3--------|
E----------333333-(x3)----------3--5---|