Misc Unsigned Bands - The Relatives - Back Row Boogie Chords & Tabs

 

The Relatives - Back Row Boogie Chords & Tabs

Misc Unsigned Bands Chords & Tabs

Version: 1 Type: Tab 0 ratings
1 star 2 stars 3 stars 4 stars 5 stars
comments

The Relatives - Back Row Boogie Tab

   
The Relatives are a family of musicians from Chattanooga, Tennessee. Their new
CD, "Number 2" comes out in June of 2005.
Intro
Bells and Drums for 0:32 then
e---------------------------|
B---------------------------|
G--------------------   x12-|
D---------------------------|
A---------------------------|
E-16--16-16-16-16-16--------|

CHORUS/SOLO
e-------------------|
B-------------------|
G-------------------|   x4
D-------------------|
A-2--2-2-2-5-4-2----|
E-0--0-4-0-0-0-0----|

e-------------------|
B-------------------|
G-------------------|   x2
D-2--2-2-2-5-4-2----|
A-0--0-4-0-0-0-0----|
E-------------------|

e-------------------|
B-------------------|
G-------------------|   x2
D-------------------|
A-2--2-2-2-5-4-2----|
E-0--0-4-0-0-0-0----|
[ Tab from: http://www.guitartabs.cc/tabs/m/misc_unsigned_bands/the_relatives_back_row_boogie_tab.html ]
e-------------------|
B-------------------|
G-------------------|   x2
D-------------------|
A-2--2-2-2-5-4-2----|
E-0--0-4-0-0-0-0----|

VERSE
"Sittin in a theatre..."
e----------------------|
B----------------------|
G----------------------|   x2
D-2-2------------------|
A-2-2-X-X-X-X-X-X-X----|
E-0-0-X-X-X-X-X-X-X----|

"Suddenly I see her as she.."
e-------------------|
B-------------------|
G-2-2---------------|
D-2-2-X-X-X-X-X-X-X-|
A-0-0-X-X-X-X-X-X-X-|
E-------------------|

"And the lights begin to dim..."
e-------------------|
B-------------------|
G-------------------|
D-2-2---------------|
A-2-2-X-X-X-X-X-X-X-|
E-0-0-X-X-X-X-X-X-X-|

e----------------------------|
B----------------------------|
G-4--4-4-4-4-4--7--7-7-7-7-7-|
D-4--4-4-4-4-4--7--7-7-7-7-7-|
A-2--2-2-2-2-2--5--5-5-5-5-5-|
E----------------------------|

CHORUS
VERSE
CHORUS
SOLO
INTRO AGAIN AS OUTRO
Comments