Misc Unsigned Bands - The Last Ones Out - As Far As My Eye Can See Chords & Tabs

 

Misc Unsigned Bands Chords & Tabs

Version: 1 Type: Tab 0 ratings
1 star 2 stars 3 stars 4 stars 5 stars
comments

The Last Ones Out - As Far As My Eye Can See Tab

   
As Far As My Eye Can See by The Last Ones Out

Intro pt 1 x 2
E ----------------------------------------------------------|
b -----9-9-10-9-------9-9-10-9------9-9-10-9-------9-9-10-7-|
G ------9------9-------9------9------9------9-------9-------|
D ----------------------------------------------------------|
A -7-7------------9-9--------------------------0-0----------|
E ------------------------------9-9-------------------------|

Intro pt 2 x 2
E ------------------------------------------------|
b -----9-10-9------9-10-9------9-10-9------9-10-7-|
G ------------------------------------------------|
D ------------------------------------------------|
A -7-7---------9-9---------------------0-0--------|
E -------------------------9-9--------------------|

Intro pt 3 x 2
E --------------------------------------------------------|
b -----12-13-12------12-13-12------12-13-12------12-13-10-|
G --------------------------------------------------------|
D --------------------------------------------------------|
A -7-7-----------9-9-------------------------0-0----------|
E -----------------------------9-9------------------------|

Verse pt 1 x 1
E ------------------------------|
b ------------------------------|
G -9xxxxx11xxxxx----------------|
D -9xxxxx11xxxxx7xxxxxx9xxxxxx-
A -7xxxxx9xxxxxx7xxxxxx9xxxxxx-
E --------------5xxxxxx7xxxxxx-

Verse pt 2 x 1
E ------------------------------|
b ------------------------------|
G -9xxxxx11xxxxx----------------|
D -9xxxxx11xxxxx7xxxxxx9x9x9-9--|
A -7xxxxx9xxxxxx7xxxxxx9x9x9-9--|
E --------------5xxxxxx7x7x7-7--|
[ Tab from: http://www.guitartabs.cc/tabs/m/misc_unsigned_bands/the_last_ones_out_as_far_as_my_eye_can_see_tab.html ]
Verse pt 3 x 2
E ----------------------------------------------------------|
b ----------------------------------------------------------|
G -9-9-9-9-9-9--11-11-11-11-11-11---------------------------|
D -9-9-9-9-9-9--11-11-11-11-11-11--7-7-7-7-7-7--9-9-9-9-9-9-|
A -7-7-7-7-7-7--9--9--9--9--9--9---7-7-7-7-7-7--9-9-9-9-9-9-|
E ---------------------------------5-5-5-5-5-5--7-7-7-7-7-7-|

Pre-verse pt 1 x 1
E ------------------------------------------------|
b -----9-10-9------9-10-9------9-10-9------9-10-7-|
G ------------------------------------------------|
D ------------------------------------------------|
A -7-7---------9-9---------------------0-0--------|
E -------------------------9-9--------------------|

Pre-verse pt 2 x 1
E --------------------------------------------------------|
b -----12-13-12------12-13-12------12-13-12------12-13-10-|
G --------------------------------------------------------|
D --------------------------------------------------------|
A -7-7-----------9-9-------------------------0-0----------|
E -----------------------------9-9------------------------|

Verse all the way through

Chorus pt 1 x 3
E ----------------------------------------------------|
b ----------------------------------------------------|
G ---------------------------9-9-9-9-9-9--6-6-6-6-6-6-|
D -7-7-7-7-7-7--9-9-9-9-9-9--9-9-9-9-9-9--6-6-6-6-6-6-|
A -7-7-7-7-7-7--9-9-9-9-9-9--7-7-7-7-7-7--4-4-4-4-4-4-|
E -5-5-5-5-5-5--7-7-7-7-7-7---------------------------|

Chorus pt 2 x 1
E ---------|
b ---------|
G ---------|
D -7---9---|
A -7---9---|
E -5---7---|

pre-verse

verse

chorus

Bridge x 6 (tempo change)
E ----------------------------------------------------------|
b -----9-9-10-9-------9-9-10-9------9-9-10-9-------9-9-10-7-|
G ------9------9-------9------9------9------9-------9-------|
D ----------------------------------------------------------|
A -7-7------------9-9--------------------------0-0----------|
E ------------------------------9-9-------------------------|

(tempo change)

verse

extended chorus (x 6)

pre-verse

end
Comments