Misc Unsigned Bands - The Intruders - Summer Chords & Tabs

 

The Intruders - Summer Chords & Tabs

Misc Unsigned Bands Chords & Tabs

Version: 1 Type: Bass Tab

The Intruders - Summer Bass Tab

Intro
G---------------------|
D-9-------------------|
A------9----11-----7--|
E---------------------|

Intro Part 2
G -----11-11-9-9-8-9-----9-9-8-8-9-11----------------------------|
D -9-9-----------------------------------11-13-13-11-14-14-14-14-|
A -------------------9-9--------------11-------------------------|
E ---------------------------------------------------------------|

Verse
G-----------------------|
D-9*9*------------------|
A-------9*9*-11*11*-7*7-|
E-----------------------|
[ Tab from: http://www.guitartabs.cc/tabs/m/misc_unsigned_bands/the_intruders_summer_btab.html ]
Middle Riff thingymagig
G -----11-11-9-9-8-9-----9-9-8-8-9-11----------------------------|
D -9-9-----------------------------------11-13-13-11-14-14-14-14-|
A -------------------9-9--------------11-------------------------|
E ---------------------------------------------------------------|

Verse
G-----------------------|
D-9*9*------------------|
A-------9*9*-11*11*-7*7-|
E-----------------------|

Chorus
G-------------------------------------|
D-9-9-9-9-----------------------------|
A---------9-9-9-9-11-11-11-11-7-7-7-7-|
E-------------------------------------|

Solo
G -----11-11-9-9-8-9-----9-9-8-8-9-11----------------------------|
D -9-9-----------------------------------11-13-13-11-14-14-14-14-|
A -------------------9-9--------------11-------------------------|
E ---------------------------------------------------------------|

Thats it really, i'm just cool - MIKE