Misc Unsigned Bands - The Identities - Last In Line Chords & Tabs

 

The Identities - Last In Line Chords & Tabs

Misc Unsigned Bands Chords & Tabs

Version: 1 Type: Tab 0 ratings
1 star 2 stars 3 stars 4 stars 5 stars
comments

The Identities - Last In Line Tab

This is our first song which can be heard at www.purevolume.com/theidentities

www.theidentities.tk

Bend=/
Muted=m
Dead Note=x
Slide=s

Standard Tuning
Intro
e--------------------------------------------------------------------|
b--------------------------------------------------------------------|
g------x-x-x---------------------------------------------------------|
d------x-x-x-------10-12-10------------------------------------------|
a--12--x-x-x-10-12----------12-10-12-10-/12--------------------------|
e--------------------------------------------------------------------|
 X3
e--------------------------------------------------------------------|
b--------------------------------------------------------------------|
g-----x-x-x----------------------------------------------------------|
d-----x-x-x----------------------------------------------------------|
a--12-x-x-x--10-12-10-12-10-12-10-12-10-12-10-12---------------------|
e--------------------------------------------------------------------|

Chorus
1st Guitar
e----------------------------------------------------------------------|
b----------------------------------------------------------------------|
g----------------------------------------------------------------12-11-|
d-----------------------------10-10-10---------------------------------|
a--12-12-12-10-10-10-12-12-12----------12-12-12-10-10-10-12-12-12------|
e----------------------------------------------------------------------|

e---------------------------------------------------------------------|
b---------------------------------------------------------------------|
g---------------------------------------------------------------------|
d----------------------------10-12-11-10------------------------------|
a--12-12-12-10-10-10-12-12-12-----------12-11-10-----3-s-5------------|
e---------------------------------------------------------------------|
[ Tab from: http://www.guitartabs.cc/tabs/m/misc_unsigned_bands/the_identities_last_in_line_tab.html ]
2nd Guitar
e--------------------------------------------------------------------|
b--------------------------------------------------------------------|
g--------------------------------------------------------------------|
d---7-7-7-5-5-5-7-7-7-5-5-5-7-7-7-5-5-5-7-7-7-5-5-5------------------|
a---7-7-7-5-5-5-7-7-7-5-5-5-7-7-7-5-5-5-7-7-7-5-5-5------------------|
e---5-5-5-3-3-3-5-5-5-3-3-3-5-5-5-3-3-3-5-5-5-3-3-3------------------|
X2
Verse
1st Guitar
e--------------------------------------------------------------------|
b--------------------------------------------------------------------|
g------x-x-x---------------------------------------------------------|
d------x-x-x-------10-12-10------------------------------------------|
a--12--x-x-x-10-12----------12-10-12-10-/12--------------------------|
e--------------------------------------------------------------------|
X5
e--------------------------------------------------------------------|
b--------------------------------------------------------------------|
g-----x-x-x----------------------------------------------------------|
d-----x-x-x----------------------------------------------------------|
a--12-x-x-x--10-12-10-12-10-12-10-12-10-12-10-12---------------------|
e--------------------------------------------------------------------|

2nd Guitar
e--------------------------------------------------------------------|
b--------------------------------------------------------------------|
g--------------------------------------------------------------------|
d--7m--7m--7m--7m--7m--7m--7m--7m--7m--7m--7m--7m--7m--x--5m---------|
a--7m--7m--7m--7m--7m--7m--7m--7m--7m--7m--7m--7m--7m--x--5m---------|
e--5m--5m--5m--5m--5m--5m--5m--5m--5m--5m--5m--5m--5m--x--3m---------|
X5
e--------------------------------------------------------------------|
b--------------------------------------------------------------------|
g--------------------------------------------------------------------|
d--7m--7m--7m--7m--7m--7m--7m--7m--7m--7m--7m--7m--7-7-7-7-7-7-------|
a--7m--7m--7m--7m--7m--7m--7m--7m--7m--7m--7m--7m--7-7-7-7-7-7-------|
e--5m--5m--5m--5m--5m--5m--5m--5m--5m--5m--5m--5m--5-5-5-5-5-5-------|

Chorus

Verse

Chorus

Bass Solo (Don't feel like writing it here)

Guitar Solo (If you need to look up a solo, you are a loser.  Make up your own and stop 
on someone else's style.)

Bridge
e--------------------------------------------------------------------|
b--------------------------------------------------------------------|
g--------------------------------------------------------------------|
d-------------------------11-9-11-9-11-9-11-9------------------------|
a-12-10-12-10-12-10-12-10--------------------------------------------|
e--------------------------------------------------------------------|
X3
e--------------------------------------------------------------------|
b--------------------------------------------------------------------|
g-------------------------14-12-14-12-14-12-14-12--------------------|
d-14-12-14-12-14-12-14-12--------------------------------------------|
a--------------------------------------------------------------------|
e--------------------------------------------------------------------|

Chorus

(Outro is just the verse that fades out with improvisation in that area)

Have fun.  The IdeNTiTieS
Comments