Misc Unsigned Bands - The Historias - Caught Between You Chords & Tabs

 

The Historias - Caught Between You Chords & Tabs

Misc Unsigned Bands Chords & Tabs

Version: 1 Type: Tab 0 ratings
1 star 2 stars 3 stars 4 stars 5 stars
comments

The Historias - Caught Between You Tab

   
****************************************************************************
"The Historias-Caught Between You"
Tabbed By: Jeff Conway	(This tab is in "Am")
*Gt. 1 in Drop "D" Gt.2 Standard
****************************************************************************
/-Slide	h-Hammer-on		*-Notes	~-Tremello Pick(pick fast and repeatedly)
v-Vibrato	pm-Palm Mute	Lr-Let Ring
...-Stop Note From Ringing			x-Finger/Thumb Mute

Intro: Gt. 1 (Distorted)
e|----15----15----------15----15---|
B|--------13--13--13--------13--13-|
G|1414--14------14--1414--14-------|
D|---------------------------------|
A|---------------------------------|
D|---------------------------------|
Gt. 1 Cont.							x2
e|----15----15----------15----15---|
B|--------13--13--13--------13--13-|
G|1212--12------12--1212--12-------|
D|---------------------------------|
A|---------------------------------|
D|---------------------------------|

Intro: Gt. 2 (Distorted)pm
e|---------------------------------|
B|---------------------------------|
G|---------------------------------|
D|---------2---------------4-------|
A|-0-0-0-0---0-0-0-2-2-2-2---2-2-2-|
E|---------------------------------|
Gt. 2 Cont. pm	*vibrato only last time		x2
e|---------------------------------|
B|---------------------------------|
G|---------------------------------|
D|---------5---------------1-------|
A|-3-3-3-3---3-3-3-2-2-2-2---2-2-2v|
E|---------------------------------|

Verse I: Gt. 1	* Stuff In () you play 1st time only
e|(0)--|-------------------------------------------------|
B|(1)--|-------------------------------------------------|
G|(2)--|-------------------------------------------------|	x4
D|(2)--|-7-7-x-x-9-9-x-x1010-x-x-0-0-x-x-2-2-x-x---------|
A|(0)--|-7-7-x-x-9-9-x-x1010-x-x-0-0-x-x-2-2-x-x-2-3-2-0-|
D|(x)--|-7-7-x-x-9-9-x-x1010-x-x-0-0-x-x-2-2-x-x---------|

Verse I: Gt. 2 pm
e|(x)--|-----------------------------------------------2-|
B|(x)--|-------1-0-------------0-1-------------------3---|
G|(x)--|-----2-----0---------------2-----------0---2-----|	x4
D|(x)--|---2---------2-------1-------2-------0---0-------|
A|(x)--|-0-------------2---2-----------0---2-------------|
E|(x)--|-----------------2---------------3---------------|

Bridge: Gt. 1
e|-------------------------|
B|-------------------------|
G|-----------9-----------9-|		x2
D|-----7---9---9------10---|
A|---7---7-------7---7-----|
D|-7---------------7-------|
[ Tab from: http://www.guitartabs.cc/tabs/m/misc_unsigned_bands/the_historias_caught_between_you_tab.html ]
Bridge: Gt. 2 pm (Tremelow pick each note for 4 beats only)
e|-------------------------|
B|-------------------------|
G|-------------------------|		x2
D|----------------14~~~~~~v|*Vibrato last time only(after done tremelo picking)
A|12~~~~~~16~~~~~~---------|
E|-------------------------|

Chorus: Gt. 1
e|-----------------------------------------------------------------|
B|-----------------------------------------------------------------|
G|-9-9-9-9-9-9-9-9-9-9-9-9-9-9-9-9-7-7-7-7-7-7-7-7-7-7-7-7-7-7-7-7-|	x4
D|101010101010101010101010-7-7-7-7-8-8-8-8-8-8-8-8-8-8-8-8-5-5-5-5-|
A|-8-8-8-8-8-8-8-8-7-7-7-7-7-7-7-7-6-6-6-6-6-6-6-6-5-5-5-5-5-5-5-5-|
D|-7-7-7-7-7-7-7-7-7-7-7-7-7-7-7-7-5-5-5-5-5-5-5-5-5-5-5-5-5-5-5-5-|

Chorus: Gt. 2 pm
e|-----------------------------------------------------------------|
B|-----------------------------------------------------------------|
G|-.-------.-------.-------.-------.-------.-------.-------.-------|	x
D|-7---7-7-7---7-7-5---5-5-5---5-5-3---3-3-3---3-3/9---9-9-9---9-9-|
A|-7---7-7-7---7-7-5---5-5-5---5-5-3---3-3-3---3-3/9---9-9-9---9-9-|
E|-5---5-5-5---5-5-3---3-3-3---3-3-1---1-1-1---1-1/7---7-7-7---7-7-|

Verse I: Gt. 1
e|-------------------------------------------------|
B|-------------------------------------------------|
G|-------------------------------------------------|	x4
D|-7-7-x-x-9-9-x-x1010-x-x-0-0-x-x-2-2-x-x---------|
A|-7-7-x-x-9-9-x-x1010-x-x-0-0-x-x-2-2-x-x-2-3-2-0-|
D|-7-7-x-x-9-9-x-x1010-x-x-0-0-x-x-2-2-x-x---------|

Verse I: Gt. 2 pm
e|-----------------------------------------------2-|
B|-------1-0-------------0-1-------------------3---|
G|-----2-----0---------------2-----------0---2-----|	x4
D|---2---------2-------1-------2-------0---0-------|
A|-0-------------2---2-----------0---2-------------|
E|-----------------2---------------3---------------|

*Bridge*
*Chorus x2 then...*

Outro: Gt. 1
e|-----------------------------------------------------------------|
B|-----------------------------------------------------------------|
G|---------------------9-------9-------------------------9---------|	x2
D|----10------10--------------------------------------10------10-7-|
A|---8-------8-------8-------8-------8-7-----8-7-----8-------7-----|
D|-7-------7-------7-------7-------7-------7-------7-------7-------|

Outro: Gt. 2 pm
e|-----------------------------------------------------------------|
B|-----------------------------------------------------------------|
G|-----------------------------------------------------------------|	x2
D|-----7-6-7-----5-----7-6-7-----5-----5-4-5-----5-----5-4-5-----5-|
A|---7-------7-------7-------7-------5-------5-------5-------5-----|
E|-5-----------0---5-----------0---3-----------0---3-----------0---|

This Is MY BAND!!! Any Questions Or Comments Contact Me At bradshawboy6@hotmail.com Or
At bradshawboy6@yahoo.com... And If That Doesnt Work... Leave A Comment... THANX!!!
Comments