Misc Unsigned Bands - The Goodbye Stars - Breath Away Chords & Tabs

 

The Goodbye Stars - Breath Away Chords & Tabs

Misc Unsigned Bands Chords & Tabs

Version: 1 Type: Tab 0 ratings
1 star 2 stars 3 stars 4 stars 5 stars
comments

The Goodbye Stars - Breath Away Tab

http://goodbyestars.8m.com 
http://www.mp3.com.au/thegoodbyestars

LYRIC/TAB SHEET: 'breath away' by THE GOODBYE STARS.

==========================breath away==========================

there's something in your loving way that makes me stick
your eyes can cast a spell on me that draws me in deep
every night and every day I dream of you and ways to stay
dangling from your gentle arm a breath away no further from you

one breath away is too far
one breath away

there's something 'bout your dimpled cheek that tickles me
there's words upon my lips but yours is where they long to be
every time I breathe your name I dream that things are still the same
I'm dangling from your gentle arm a breath away no further from you

one breath away is too far
one breath away

I'm caught in
I'm caught in
You. 



**GUITAR TAB**

capo on 3rd fret.
[ Tab from: http://www.guitartabs.cc/tabs/m/misc_unsigned_bands/the_goodbye_stars_breath_away_tab.html ]
intro
|-------------------|-----------------|-----------------|------------------|
|-------------------|-----------------|-----------------|------------------|
|-------------------|-----------------|-----------------|---------------0--|
|-----0---0---------|-----0---0-------|-----0---0-------|-----0---2---3----|
|---1---1---1----1--|---1---1---1---1-|---0---0---0---0-|---3---3---3------|
|-1------------1----|-3-----------3---|-1-----------1---|-3----------------|

verse		      end of 4th time:
|---0---0---0---0---| |---0---0---|
|---0---0---0---0---| |---0---0---|
|---0---0---0---0---| |---2---0---|
|---7---7---5---5---| |---2---2---|
|---7---7---5---5---| |---0---3---|
|---5---5---3---3---| |---x---3---|

chorus					  end of chorus:
|---0---3---0---0---|---0---3---0---0---| |---0---0---|
|---0---0---0---0---|---0---0---0---0---| |---0---0---|
|---2---0---2---0---|---2---0---2---2---| |---2---0---|
|---2---0---2---2---|---2---0---2---2---| |---2---2---|
|---0---2---0---3---|---0---2---0---0---| |---0---3---|
|---x---3---x---3---|---x---3---x---x---| |---x---3---|

interlude
|---0---0---0---0---|
|---0---0---0---0---|
|---0---0---0---0---|
|---2---4---5---5---|
|---3---5---7---7---|
|---3---5---7---7---|

outro			end:
|---0---0---0---0---| |---0---|
|---0---0---0---0---| |---0---|
|---0---0---0---0---| |---0---|
|---5---4---2---4---| |---2---|
|---7---5---3---5---| |---2---|
|---7---5---3---5---| |---0---|

===============================================================
Comments