Misc Unsigned Bands - The Eustasy - Aids Chords & Tabs

 

The Eustasy - Aids Chords & Tabs

Misc Unsigned Bands Chords & Tabs

Version: 1 Type: Tab 0 ratings
1 star 2 stars 3 stars 4 stars 5 stars
comments

The Eustasy - Aids Tab

The Eustasy: AIDS Lead guitar

the eustasy is a newly formed band with the AIDS song being a contribution to general 
day solidarity events all over the world.

Intro (Palm Muted)

---------------------------------------------|
---------------------------------------------|
-7-7---777-------------5-5---555-------------|
-7-7---777-7-77---7777-5-5---555-5-55---5555-|
-5-5---555-7-77---7777-3-3---333-5-55---5555-|
-----------5-55---5555-----------3-33---3333-|

Bridge (Open)
[ Tab from: http://www.guitartabs.cc/tabs/m/misc_unsigned_bands/the_eustasy_aids_tab.html ]
---------------------------------------------|
---------------------------------------------|
-7-7---777-------------5-5---555-------------|
-7-7---777-7-77---7777-5-5---555-5-55---5555-|
-5-5---555-7-77---7777-3-3---333-5-55---5555-|
-----------5-55---5555-----------3-33---3333-|

Chorus (open)

------------------------|
------------------------|
-7-7-5-5----------------|
-7-7-5-5--7-77---5---55-|
-5-5-3-3--7-77---5---55-|
----------5-55---3---33-|

ORDER

INTRO         x4
BRIDGE        x1
V  E  R  S  E
BRIDGE        x2
V  E  R  S  E
BRIDGE        x2
CHORUS        x5
V  E  R  S  E
BRIDGE        x2
CHORUS        x5
Comments