Misc Unsigned Bands - The Doomed Butcher - The Doomed Butcher Chords & Tabs

 

The Doomed Butcher - The Doomed Butcher Chords & Tabs

Misc Unsigned Bands Chords & Tabs

Version: 1 Type: Bass Tab

The Doomed Butcher - The Doomed Butcher Bass Tab

           The Doomed Butcher


Song: The Doomed Butcher

Bass Tab By: Rodi & Tonza

          Intro

G----------------------------|
D----------------------------|
A----------------------------|   4X
E-0--------------------------| /

G--------------------------------------------------|
D--------------------------------------------------|
A--------------------------------------------------|
E-5-5-----3/5-5-----5-5-------1111133333-----------|

Verse:
G----------------------------------------------------------------|
D----------------------------------------------------------------|
A-3/5555555-3/5555555-3/5555555-1111133333-----------------------|  6X
E----------------------------------------------------------------| /

Then with faster tempo: the same as above  6X

Part before and after solo. Rhythm for solo is the same.
[ Tab from: http://www.guitartabs.cc/tabs/m/misc_unsigned_bands/the_doomed_butcher_the_doomed_butcher_btab.html ]
G---------------------------------------------------------------|
D---------------------------------------------------------------|
A---------------------------------------------------------------|
E-7-77-7-77-7-77-7-77-101010-999-555-777------------------------|      8X
                                                               /
G--------------------------------------------------------------|     /
D--------------------------------------------------------------|   /
A--------------------------------------------------------------| /
E-33-33-3-33-33-33-3-2-22-2-22-2-22-2-22-----------------------|

Outro (slow tempo):

G---------------------------------------------------------|
D---------------------------------------------------------|
A---------------------------------------------------------|
E-7-77-7-77-7-77-7-77-101010-999-555-777------------------|

G--------------------------------------------------------|
D--------7-----------------------------------------------|
A-----9--------------------------------------------------|
E-7------------------------------------------------------|

Order:
Intro 1X
Verse 12X
Solo rhythm 8X
Verse 6X
Solo Rhythm 8X
Outro 1X