Misc Unsigned Bands - The Demons Diary - As The Leaves Began To Fall Chords & Tabs

 

The Demons Diary - As The Leaves Began To Fall Chords & Tabs

Misc Unsigned Bands Chords & Tabs

Version: 1 Type: Bass Tab

The Demons Diary - As The Leaves Began To Fall Bass Tab

The Demons Diary - As the leaves began to fall
Official Bandsite -www.DemonsDiary.com-

It's a really cool band, I tabbed the bass of the live Version that 
they played in Austria. 
It's only the rhythm, the solos etc. are too heavy to tab

                                                               
D#||-------------------|------------------|--3----------------|
A#||--0----------------|------------------|-------------------|
F ||-------------------|------------------|-------------------|
C ||-------------------|------------------|-------------------|


                                                                              
------------------|-------------------|------------------|-------------------|
------------------|-------------------|------------------|-------------------|
------------------|-------------------|------------------|-------------------|
------------------|--1----------------|------------------|--5----------------|


                                                                              
------------------|-------------------|------------------|--3----------------|
------------------|--0----------------|------------------|-------------------|
------------------|-------------------|------------------|-------------------|
------------------|-------------------|------------------|-------------------|


                                                                              
------------------|-------------------|------------------|-------------------|
------------------|-------------------|------------------|-------------------|
------------------|-------------------|------------------|-------------------|
------------------|--1----------------|------------------|--5----------------|


                                                                              
------------------|-------------------|------------------|--3----------------|
------------------|--0----------------|------------------|-------------------|
------------------|-------------------|------------------|-------------------|
------------------|-------------------|------------------|-------------------|


                                                                              
------------------|-------------------|------------------|-------------------|
------------------|-------------------|------------------|-------------------|
------------------|-------------------|------------------|-------------------|
------------------|--1----------------|------------------|--5----------------|


                                                                              
------------------|-------------------|------------------|--3----------------|
------------------|--0----------------|------------------|-------------------|
------------------|-------------------|------------------|-------------------|
------------------|-------------------|------------------|-------------------|


                                                                              
------------------|-------------------|------------------|-------------------|
------------------|-------------------|------------------|-------------------|
------------------|-------------------|------------------|-------------------|
------------------|--1----------------|------------------|--5----------------|


                                                                       
------------------|-------------------------|--3----3---3--3---3--3-3-|
------------------|--0----0---0--0---0--0-0-|-------------------------|
------------------|-------------------------|-------------------------|
------------------|-------------------------|-------------------------|


                                                                              
-------------------------|-------------------------|-------------------------|
-------------------------|-------------------------|-------------------------|
-------------------------|-------------------------|--5----5---5--5---5--5-5-|
--1----1---1--1---1--1-1-|--5----5---5--5---5--5-5-|-------------------------|


                                                                              
-------------------------|-------------------------|-------------------------|
-------------------------|-------------------------|-------------------------|
-------------------------|-------------------------|-------------------------|
--6----6---6--6---6--6-6-|--1----1---1--1---1--1-1-|--5----5---5--5---5--5-5-|

[ Tab from: http://www.guitartabs.cc/tabs/m/misc_unsigned_bands/the_demons_diary_as_the_leaves_began_to_fall_btab.html ]
                                                        
|--------------------------||--------------------------|
|*------------------------*||*-------------------------|
|*--5--5------------------*||*--5----5---5--5---5--5-5-|
|-----------6--6----5--5---||--------------------------|


                                                                                
-------------------------|-------------------------|--------------------------||
-------------------------|-------------------------|-------------------------*||
-------------------------|-------------------------|-------------------------*||
--6----6---6--6---6--6-6-|--1----1---1--1---1--1-1-|--5----5---5--5---5--5-5--||


                                                                   
------------------------||--------------------|-------------------|
------------------------||*-------------------|-------------------|
--5--5------------------||*--5----------------|-------------------|
----------6--6----5--5--||--------------------|--6----------------|


                                                                   
-------------------|--------------------||----|-------------------|
-------------------|-------------------*||----|-------------------|
-------------------|-------------------*||----|--5----------------|
--1----------------|--5-----------------||----|-------------------|


                                                                                
-------------------|-------------------|-------------------|-------------------|
-------------------|-------------------|-------------------|-------------------|
-------------------|-------------------|-------------------|--5----------------|
--6----------------|--1----------------|--5----------------|-------------------|


                                                            
-------------------|-------------------|-------------------|
-------------------|-------------------|-------------------|
-------------------|-------------------|-------------------|
--6----------------|--1----------------|--5----------------|


                                                                 
------------------------|-------------------|-------------------|
------------------------|-------------------|-------------------|
--5--5------------------|--5----------------|-------------------|
----------6--6----5--5--|-------------------|--6----------------|


                                                                                
-------------------|-------------------|-------------------|-------------------|
-------------------|-------------------|-------------------|-------------------|
-------------------|-------------------|--5----------------|-------------------|
--1----------------|--5----------------|-------------------|--6----------------|


                                                                                
-------------------|-------------------|-------------------|-------------------|
-------------------|-------------------|-------------------|-------------------|
-------------------|-------------------|--5----------------|-------------------|
--1----------------|--5----------------|-------------------|--6----------------|


                                                                              
-------------------|-------------------|------------------|------------------|
-------------------|-------------------|------------------|------------------|
-------------------|-------------------|------------------|------------------|
--1----------------|--5----------------|------------------|------------------|


                                                                            
------------------|------------------|------------------|------------------|
------------------|------------------|------------------|------------------|
------------------|------------------|------------------|------------------|
------------------|------------------|------------------|------------------|


                                                                            
------------------|------------------|------------------|------------------|
------------------|------------------|------------------|------------------|
------------------|------------------|------------------|------------------|
------------------|------------------|------------------|------------------|


                    
------------------||
------------------||
------------------||
------------------||