Misc Unsigned Bands - The Anteaters - Whatever Chords & Tabs

 

The Anteaters - Whatever Chords & Tabs

Misc Unsigned Bands Chords & Tabs

Version: 1 Type: Tab

The Anteaters - Whatever Tab

This Is the Begining of a song one of the Anteaters guitarist when he downloaded the
power tab system from taborama.com and he made this song and he has made revisions up
to about two hours ago. Trust me am the guitarist.
 

Legend
Repeat 2x  .  .
           .  . 
 
e--------------------------------------------------------------------------]
b-.------------------------------------------------------------------------]
g--0---------0---------0---------------------------------------0-----4-3---]
d--0---------0---------0---------3---------3-----3-----3-----3-0-4-4-4-3---]
a-.--0-0-0-0---0-0-0-0---0-0-0-0-3-0-0-0-0-3-0-0-3-0-0-3-0-0-3---4-4-2-1---]
e----------------------------------------------------------------2-2-------]
[ Tab from: http://www.guitartabs.cc/tabs/m/misc_unsigned_bands/the_anteaters_whatever_tab.html ]
e------0-------------------------------------------------------------------]
b------0-.--0---------0---------0---------------------------------------0--]
g------1----0---------0---------0---------3---------3-----3-----3-----3-0--]
d-0-1--2----0-0-0-0-0-0-0-0-0-0-0-0-0-0-0-3-0-0-0-0-3-0-0-3-0-0-3-0-0-3-0--]
a-0-1--2-.----0-0-0-0---0-0-0-0---0-0-0-0-3-0-0-0-0-3-0-0-3-0-0-3-0-0-3----]
e-0-1--0-------------------------------------------------------------------]

e-------------0------------------------------------------------------------]
b-----3-2-----0------------------------------------------------------------]
g-3-3-4-3-----1------------------------------------------------------------]
d-4-4-4-3-0-1-2------------------------------------------------------------]
a-4-4-2-1-0-1-2------------------------------------------------------------]
e-2-2-----0-1-0------------------------------------------------------------]