Misc Unsigned Bands - The Anatrah - The Gatekeeper Chords & Tabs

 

The Anatrah - The Gatekeeper Chords & Tabs

Misc Unsigned Bands Chords & Tabs

Version: 1 Type: Tab 0 ratings
1 star 2 stars 3 stars 4 stars 5 stars
comments

The Anatrah - The Gatekeeper Tab

this is my local band and i'm just trying to get my name out there!
hope you like it

e--12-12--12---------------------|
a-------10----12-10-6-7-----7----|
d------------9---------4-2-7-----|    (intro)
g--------------------------------|
b--------------------------------|
e--------------------------------|

e--0----0-0------------------|
a--7----7-9------------------|
d--5----------   (pre-verse--|x4
g-------9-11-----------------|
b-------8-10-----------------|
e----------------------------|

e--00000000000-------12-12----------|
a--7-7-7-7-7-7-7-9--9--9--h9-9-9----|
d--5-5-5-5-5-5----------------7-----|
g--------------9-11-------------7---|       (verse)x4
b--------------8-10-------------7---|
e-------------------------------7---|
[ Tab from: http://www.guitartabs.cc/tabs/m/misc_unsigned_bands/the_anatrah_the_gatekeeper_tab.html ]
e--0--0----------12-12-10----|
a--7--9--s7-10-10------------|
d--5--7------------------9---|
g----------------------------|
b----------------------------|
e----------------------------|
                                 (bridge)x8
e--0--0----------12-12-10----|
a--7--9--s7-10-10------------|
d--5--7----------------------|
g------------------------12--|
b------------------------12--|
e------------------------12--|

e--0-----------------12---0--|
a---7-0-7---9----12----10-7--|
d----5-------------10-----9--|
g--------9-----11------------|        (breakdown)x4
b---------8--10--------------|
e----------------------------|

e----------------------------------------------------|
a----------------------------------------------------|
d----------9-9-9--------------7-7-7------------------|
g--12-12-12-----12-12-11-11-11-----       (build-up--|x4
b----------------------------------------------------|
e----------------------------------------------------|

e--0-0-0------------|
a--7-7-7-7-7-9------|
d--5-5-5------------|         (outro)x3
g--------9-9-11-----|
b--------8-8-10-----|

e--5----7-0--0------|
a---3-0--5---7------|
d------------5------|
g-------------------|         (outro)x1
b-------------------|
e-------------------|
Comments