Misc Unsigned Bands - Synonus - Your Savior Shall Save No More Chords & Tabs

 

Synonus - Your Savior Shall Save No More Chords & Tabs

Misc Unsigned Bands Chords & Tabs

Version: 1 Type: Bass Tab

Synonus - Your Savior Shall Save No More Bass Tab

   
YOUR SAVIOR SHALL SAVE NO MORE-SYNONUS
TABBED BY:JUSTIN MALERBE OF SYNONUS
                                      * HOLD NOTE
        INTRO                         h HAMMER ON
 F|------------------------|          p PULL OFF
 C|------------------------|         (x)PLAY NOTE(S) ON A DIFFERENT PART OF 
 G|2222--2222--2222222222--|            SONG
 D|------------------------|
 A|------------------------|


        VERSE B
 F|------------------------|
 C|------------------------|
 C|------------------------|
 D|------------------------|
 A|00000-00000-0000000001--|
       *     *        *

        PRECHORUS
 F|--------------------------|
 C|--------------------------|
 G|--------------------------|
 D|--------------------------|
 A|OOO3h7-0002h6-0000000001--|
[ Tab from: http://www.guitartabs.cc/tabs/m/misc_unsigned_bands/synonus_your_savior_shall_save_no_more_btab.html ]
        VERSE A
 F|------------------------|
 C|------------------------|
 G|-----------(3)----------|
 D|------------------------|
 A|0000--0000--0000000000--|
              (1)
        CHORUS
 F|-----------------------------------------|
 C|-----------------------------------------|
 G|-----------------------------------------|
 D|----7h10p7-----6h9p6---------------------|
 A|000--------000-------000-7h10p7-6h7p6-3*-|

        MIDCHORUS(GUITAR SOLO)
 F|------------------------------|
 C|------------------------------|
 G|------------------------------|
 D|--67-------------76-----------|
 A|78---00000000--78---00000000--|

SONG STRUCTURE:

INTRO
VERSE B
PRECHORUS
VERSE A
VERSE B
PRECHORUS
CHORUS
VERSE A
VERSE B
PRECHORUS
CHORUS
VERSE A
MIDCHORUS
CHORUS
VERSE A


HEY COOL!SYNONUS TABS!ENJOY MY SHITTY BASS LINES!
                                                           copyrighted in '05