Misc Unsigned Bands - Symphonic Haze - Shades Of Sorrow Chords & Tabs

 

Symphonic Haze - Shades Of Sorrow Chords & Tabs

Misc Unsigned Bands Chords & Tabs

Version: 1 Type: Tab 0 ratings
1 star 2 stars 3 stars 4 stars 5 stars
comments

Symphonic Haze - Shades Of Sorrow Tab

Symphonic Haze is an awesome band from Berwick, PA. Check them out at
myspace.com/symphonichaze.  This is their best song.

Tuning: Drop-D 1/2 Step Down (Low To High: C# G# C# F# A# D#)

Figure 1
1------------|
2------------|
3--/10-10-10-|
4------------|
5--/8---8--8-|
6------------|

Figure 2
1---------------------------------|
2---------------------------------|
3---------------------------------|
4--0-xxxx-7-7-7-7--3-xxxx-8-8-8-7-|
5--0-xxxx-7-7-7-7--3-xxxx-8-8-8-7-|
6--0-xxxx-7-7-7-7--3-xxxx-8-8-8-7-|
On the second time around, replace the G# with Figure 1
[ Tab from: http://www.guitartabs.cc/tabs/m/misc_unsigned_bands/symphonic_haze_shades_of_sorrow_tab.html ]
Figure 3
1----------------------------------------------------------------|
2----------------------------------------------------------------|
3--10-10-10-9--9-9-9-7--7-7-7-5--5-5-5/7-7-7-7-7-xxx-7-7-xxx-7-7-|
4----------------------------------------------------------------|
5---8--8--8-7--7-7-7-5--5-5-5-3--3-3-3/5-5-5-5-5-xxx-5-5-xxx-5-5-|
6----------------------------------------------------------------|

1----------------------------------------------|
2----------------------------------------------|
3-10-10-10-9-9-9-9/12-12-12-12\5-5-5/7~~~~~~~~-|
4----------------------------------------------|
5--8--8--8-7-7-7-7/10-10-10-10\3-3-3/5~~~~~~~~-|
6----------------------------------------------|

Outro:
Slide To Nowhere...
1----------|
2----------|
3-10\\\\\\\|
4----------|
5--8\\\\\\\|
6----------|

Song Order:

Figure 1 (Distorted)
Figure 2 x 2 (Distorted)
Figure 3 (Distorted)
Figure 3 x 2 (Clean)
Figure 2 x 4 (Distorted)
Figure 3 (Distorted)
Figure 3 x 2 (Clean)
Figure 2 x 6
Solo (No tab yet)
Figure 2 x a bunch
Outro
Comments