Misc Unsigned Bands - Stu And The Frets - Much Ado About Nothing Chords & Tabs

 

Stu And The Frets - Much Ado About Nothing Chords & Tabs

Misc Unsigned Bands Chords & Tabs

Version: 1 Type: Bass Tab 0 ratings
1 star 2 stars 3 stars 4 stars 5 stars
comments

Stu And The Frets - Much Ado About Nothing Bass Tab

INTRO

G--------------------------------------------|
D--------------------------------------------|
A--------------------------------------------|
E-0-777-0-555-0-33-0-222---------------------| x6

VERSE

G--------------------------------------------|
D--------------------------------------------|
A--------------------------------------------|
E-0-777-0-555-0-33-0-222---------------------| x4

GUITAR SOLO
[ Tab from: http://www.guitartabs.cc/tabs/m/misc_unsigned_bands/stu_and_the_frets_much_ado_about_nothing_btab.html ]
G--------------------------------------------|
D--------------------------------------------|
A--------------------------------------------|
E-0-777-0-555-0-33-0-222---------------------| x10

CHORUS

G--------------------------------------------|
D-------------------55555--------------------|
A-77777-55555-77777--------------------------|
E--------------------------------------------| x2

OUTRO

G--------------------------------------------|
D-------------------55555--------------------|
A-77777-55555-77777--------------------------|
E--------------------------------------------|

G--------------------------------------------|
D-------------------55555--------------------|
A-77777-55555-77777-------7------------------|
E--------------------------------------------|
Comments