Misc Unsigned Bands - Staple Gun - Untitled Chords & Tabs

 

Staple Gun - Untitled Chords & Tabs

Misc Unsigned Bands Chords & Tabs

Version: 1 Type: Tab 0 ratings
1 star 2 stars 3 stars 4 stars 5 stars
comments

Staple Gun - Untitled Tab

   
Band-Staple Gun
Song-Untitled
Album-Demo Tape (Unreleased)

Moderatly Fast

Drop D Tuning

Intro/Verse
D|---------------------------------------------------------|
A|9-9-9-9-9-9-9-9-----------------8-8-8-8-8-8-8-8----------|
F|7-7-7-7-7-7-7-7-9-9-9-9-9-9-9-9-6-6-6-6-6-6-6-6-7-7-7-7-7|
C|----------------7-7-7-7-7-7-7-7-----------------5-5-5-5-5|
G|---------------------------------------------------------|
D|---------------------------------------------------------|

D|-----------------------------------------------------------|
A|9-9-9-9-9-9-9-9-----------------8-8-8-8-8-8-8-8------------|
F|7-7-7-7-7-7-7-7-9-9-9-9-9-9-9-9-6-6-6-6-6-6-6-6-7/7-7/7-7/7|
C|0---------------7-7-7-7-7-7-7-7-0---------------5/5-5/5-5/5|
G|----------------0------------------------------------------|
D|-----------------------------------------------------------|

Chorus
D|--------------------------------------------------------------|
A|--------------------------------------------------------------|
F|12-----------------------------9-----------------------------9|
C| 0-----------------------------0-----------------------------0|
G|10-9-9-9-9-9-9-9-9-9-9-9-9-9-9-7-9-9-9-9-9-9-9-9-9-9-9-9-9-9-7|
D|---7-7-7-7-7-7-7-7-7-7-7-7-7-7---7-7-7-7-7-7-7-7-7-7-7-7-7-7--|

D|---------------------------------------------|
A|---------------------------------------------|
F|----------------------------9----------------|
C|----------------------------0-6/6-6/6-6/6-6/6|
G|9-9-9-9-9-9-9-9-9-9-9-9-9-9-7-6/6-6/6-6/6-6/6|
D|7-7-7-7-7-7-7-7-7-7-7-7-7-7---6/6-6/6-6/6-6/6|
[ Tab from: http://www.guitartabs.cc/tabs/m/misc_unsigned_bands/staple_gun_untitled_tab.html ]
Interlude
D|-----------------------------------------------|
A|-----------------------------------------------|
F|14-14-14-14-14-14-14-14-12-12-12-12-12-12-12-12|
C|0--0--0--0--0--0--0--0--0--0--0--0--0--0--0--0-|
G|12-12-12-12-12-12-12-12-10-10-10-10-10-10-10-10|
D|-----------------------------------------------|

D|-----------------------------------------------|
A|14-14-14-14-14-14-14-14-12-12-12-12-12-12-12-12|
F|0--0--0--0--0--0--0--0--0--0--0--0--0--0--0--0-|
C|12-12-12-12-12-12-12-12-10-10-10-10-10-10-10-10|
G|-----------------------------------------------|
D|-----------------------------------------------|

D|14-14-14-14-14-14-14-14-12-12-12-12-12-12-12-12|
A|0--0--0--0--0--0--0--0--0--0--0--0--0--0--0--0-|
F|12-12-12-12-12-12-12-12-12-12-12-12-12-12-12-12|
C|-----------------------------------------------|
G|-----------------------------------------------|
D|-----------------------------------------------|

D|17-17-17-17-17-17-17-17-15|
A|0--0--0--0--0--0--0--0--0-|
F|15-15-15-15-15-15-15-15-13|
C|--------------------------|
G|--------------------------|
D|--------------------------|

Outro
D|-----------------------------------------------|
A|-----------------------------------------------|
F|-----------------------------------------------|
C|3/3-3/3-3/3-3/3-7/7-7/7-7/7-7/7-0/0-0/0-0/0-0/0|
G|3/3-3/3-3/3-3/3-7/7-7/7-7/7-7/7-0/0-0/0-0/0-0/0|
D|3/3-3/3-3/3-3/3-7/7-7/7-7/7-7/7-0/0-0/0-0/0-0/0|

Order
Intro/Verse- 2 Times
Chorus- 2 Times
Intro/Verse- 2 Times
Chorus- 2 Times
Interlude- 1 Time
Chorus- 2 Times
Outro-1 Time
Comments