Misc Unsigned Bands - Spooter - New Life Chords & Tabs

 

Spooter - New Life Chords & Tabs

Misc Unsigned Bands Chords & Tabs

Version: 1 Type: Tab 0 ratings
1 star 2 stars 3 stars 4 stars 5 stars
comments

Spooter - New Life Tab

This is my group called spooter i think you will enjoy this tab its is very
easy have fun with it. (this song has been copywritin, any one who trys to
use this song for there on personal game is liable for punishment under the
law)

INTRO: (let each cord ring for about 2 sec.)
e----------------------------------------------------------------------------
b--------------(2x)----------------------------------------------------------
g----5--9--7-----------------------------------------------------------------
d-5--5--9--7-----------------------------------------------------------------
a-5--3--7--5-----------------------------------------------------------------
e-3--------------------------------------------------------------------------

Verse:
e----------------------------------------------------------------------------
b----------------------------------------------------------------------------
g---------55555555-999-555-9--(4x)-------------------------------------------
d-5555555-55555555-999-555-9-------------------------------------------------
a-5555555-33333333-777-777-7-------------------------------------------------
e-3333333--------------------------------------------------------------------
[ Tab from: http://www.guitartabs.cc/tabs/m/misc_unsigned_bands/spooter_new_life_tab.html ]
Chorus:
e----------------------------------------------------------------------------
b----------------------------------------------------------------------------
g---------5555555---------99-77------(4x)------------------------------------
d-5555555-5555555-7777777-99-77-5--------------------------------------------
a-5555555-3333333-7777777-77-55-5--------------------------------------------
e-3333333---------5555555-------3--------------------------------------------

Solo: (more punk then fast rock but it still rocks)
e----------------------------------------------------------------------------
b----------------------------------------------------------------------------
g----------------------------------------------------------------------------
d---------------------5------------2-----------------------------------------
a----532--575----532---75---5753235------------------------------------------
e-357---35----357---35----35-------------------------------------------------

order:
intro
verse 
chorus
verse
chorus
solo
chorus

(I hope you like this song it took me along time to right I know this
song is 100% correct because i wrote this song I hope you put it on
the website so i can brage to my friends PS. look for spooter in the future)
Comments