Misc Unsigned Bands - Spooter - Hello Mcloud Chords & Tabs

 

Spooter - Hello Mcloud Chords & Tabs

Misc Unsigned Bands Chords & Tabs

Version: 1 Type: Tab 0 ratings
1 star 2 stars 3 stars 4 stars 5 stars
comments

Spooter - Hello Mcloud Tab

ok this is a group called spooter there good this is my band my name is gabe
michaux and my brother and my friend are in it if you want to see us play and you
live in pennsylvania. well then your in luck in may where playing at mount
gilipsin church for a battle of the bands, see ya their oh ya by the way this
song is one of the best. hope you enjoy this new band

intro:(this might look like it is strumed but this is picked.)
e---------------------------------------------------------------
b---------------------------------------------------------------
g----------------------4x---------------------------------------
d----4-4-5-5--7-7-5-5--9-7---------------------------------------
a--5--5-5-5--5-5-5-5---------------------------------------------
e---------------------------------------------------------------


the verse of this song is the same as the intro only that you play it 8 times
then it gos to the pre chorus.
[ Tab from: http://www.guitartabs.cc/tabs/m/misc_unsigned_bands/spooter_hello_mcloud_tab.html ]
pre chorus:
e--------------------------------------------
b-----------------------------------------2x-
g-----------------7777777-------------9999---
d-5555555-7777777-7777777-11-11-11-11-9999---
a-5555555-7777777-5555555--9 9--9--9--7777---
e-3333333-5555555----------------------------


chorus:
e------------------------------------------------------------
b-----------------------------------------------11111--4x----
g-------------99999-444-----------------99999---11111--------
d-55555-99999-99999-444-444-55555-99999-99999---xxxxx--------
a-55555-99999-77777-222-444-55555-99999-77777---99999--------
e-33333-77777-----------222-33333-77777----------------------

outro:(play slow)
e--------------------
b--------------------
g--------------------
d---7----------------
a--5-5---------------
e-3------------------


order 
intro
verse4x
prechorus2x
chorus4x
intro 2x
verse4x
prechorus2x
chorus4x (then repeat)
outro1x

there you have it hope you enjoy this one there is some stuff i left out on this
tab because i dont know how to explain how you would play because it is pretty
safisticated but the rest is original

ps. this is the second song i ever wrote so be easy
Comments