Misc Unsigned Bands - Spooter - Dragon Ball Z Chords & Tabs

 

Spooter - Dragon Ball Z Chords & Tabs

Misc Unsigned Bands Chords & Tabs

Version: 1 Type: Tab 0 ratings
1 star 2 stars 3 stars 4 stars 5 stars
comments

Spooter - Dragon Ball Z Tab

this group spooter really good and have alot of talent, this song is called
dragon ball z prefering to the show it is a funny song if you know the series
and is a brilliant song. ps. (like the intro) this group is knew and they should
be put on the real page i think they are as good as any body else and their
pennsylvania locial which makes it even better.


INTRO:( THIS SONG JAPONEESE BECAUSE THE SONG IS MAKING FUN OF JAPANEESE ANIMi)

e--5555-3-3-0-0-3-------------
b-----------------------------
g-----------------------------
d-----------------------------
a-----------------------------
e-----------------------------


second intro;
[ Tab from: http://www.guitartabs.cc/tabs/m/misc_unsigned_bands/spooter_dragon_ball_z_tab.html ]
e-----------------------------------------------------
b-----------------------------------------------------
g--7xx-----------2x---7-----------7-------------------
d--7xx-4xx-5xx-7------7--4--7--9--7--7--4--4--5-------
a--5xx-xxx-5xx-7------5--5--7--9--5--7--5--4--5-------
e------7xx-xxx-5---------x--5--7-----5--x--2--3-------

VERSE:

e-------------------------------------------------
b-------------------------------------------------
g-7777777--------------------------6x-------------
d-7777777-7777777-9999999-555-777-----------------
a-5555555-7777777-9999999-555-777-----------------
e---------5555555-7777777-333-555-----------------

Chorus:

e--------------------------------------------------------
b--------------------------------------------------------
g--7777777--------------------------4x-------------------
d--7777777-4444444-5555555-7777777-----------------------
a--5555555-xxxxxxx-5555555-7777777-----------------------
e----------7777777-xxxxxxx-5555555-----------------------


order:
intro 
verse
chorus
verse
chorus 2x
intro

x=mute out
Comments