Misc Unsigned Bands - Something Good - Suicide Story Chords & Tabs

 

Something Good - Suicide Story Chords & Tabs

Misc Unsigned Bands Chords & Tabs

Version: 1 Type: Tab 0 ratings
1 star 2 stars 3 stars 4 stars 5 stars
comments

Something Good - Suicide Story Tab

this is a newer punk band.this song is pretty easy. you just have to figure out the
strumming by listening to the song.


intro
e|------7-----------------------------|
B|--------8---8------8--------8-------|
G|----0-----0------0---0----0---0-----|
D|------------------------------------|repeat x4
A|--7---------------------------------|
E|---------------7--------8-----------|


e|--77777777777----7777----888888-----|
B|--88888888888----8888----888888-----|
G|--00000000000----0000----000000-----|
D|--00000000000----0000----000000-----|repeat x4
A|--77777777777----0000----000000-----|
E|--00000000000----7777----888888-----|

verse
e|--00000000000----0000----000000-----|
B|--88888888888----8888----888888-----|
G|--00000000000----0000----000000-----|
D|--00000000000----0000----000000-----|repeat x4
A|--77777777777----0000----000000-----|
E|--00000000000----7777----888888-----|
[ Tab from: http://www.guitartabs.cc/tabs/m/misc_unsigned_bands/something_good_suicide_story_tab.html ]
after verse
e|--00000000000---0000---000000--------0000000000---0000--0--|
B|--00000000000---0000---000000--------0000000000---0000--0--|
G|--00000000000---0000---000000--------0000000000---0000--0--|
D|--99999999999---0000---000000--------9999999999---0000--0--|
A|--77777777777---9999---101010101010--7777777777---9999--10-|
E|--00000000000---7777---888888--------0000000000---7777--8--|

verse2
e|--00000000000----0000----000000-----|
B|--88888888888----8888----888888-----|
G|--00000000000----0000----000000-----|
D|--00000000000----0000----000000-----|repeat x4
A|--77777777777----0000----000000-----|
E|--00000000000----7777----888888-----|


chorus
e|--00000000000---0000000000---00000000000000000000-----------------------|
B|--00000000000---0000000000---00000000000000000000-----------------------|
G|--00000000000---0000000000---00000000000000000000-----------------------|
D|--99999999999---0000000000---00000000000000000000-----------------------|
A|--77777777777---9999999999---1010101010101010101010101010101010101010---|
E|--00000000000---7777777777---88888888888888888888-----------------------|
repeat x3

e|--00000000000---0000000000---0----|
B|--00000000000---0000000000---0----|
G|--00000000000---0000000000---0----|
D|--99999999999---0000000000---0----|let ring
A|--77777777777---9999999999---10---|
E|--00000000000---7777777777---8----|


intro
verse
after verse
verse2
chorus
Comments