Misc Unsigned Bands - Smoothe Soul Jagged Heart - Our Anthem Chords & Tabs

 

Smoothe Soul Jagged Heart - Our Anthem Chords & Tabs

Misc Unsigned Bands Chords & Tabs

Version: 1 Type: Tab 0 ratings
1 star 2 stars 3 stars 4 stars 5 stars
comments

Smoothe Soul Jagged Heart - Our Anthem Tab

   
Our Anthem; Smoothe Soul, Jagged Heart
SSJH is a new band in a suburb of Chicago, it was built around one guitarist and is
very popular around Chicago.

Tabbed by:
Email:
[ Tab from: http://www.guitartabs.cc/tabs/m/misc_unsigned_bands/smoothe_soul_jagged_heart_our_anthem_tab.html ]
Tuning:EADGBe
INTRO- 2x
e|---------------------------------------------------------------------------|
B|---------------------------------------------------------------------------|
G|----------------2----------------------------------------------------------|
D|-------------------------2-------------------------------------------------|
A|-------2-------------2-------3---------------------------------------------|
E|----3--------2-------------------------------------------------------------|
VERSE (Palm Mutted)- 4x
e|---------------------------------------------------------------------------|
B|---------------------------------------------------------------------------|
G|---------------2-----------------------------------------------------------|
D|---------------0--------2--------2-----------------------------------------|
A|----2----------0--------2--------3-----------------------------------------|
E|----3----------2-----------------------------------------------------------|
CHORUS- 3x
e|----2----------2--------2--------2-----------------------------------------|
B|----2----------2--------2--------2-----------------------------------------|
G|----0----------2--------0--------0-----------------------------------------|
D|----0----------0--------2--------2-----------------------------------------|
A|----2----------0--------2--------3-----------------------------------------|
E|----3----------2--------0--------0-----------------------------------------|
VERSE (Palm Mutted)- 4x
e|---------------------------------------------------------------------------|
B|---------------------------------------------------------------------------|
G|---------------2-----------------------------------------------------------|
D|---------------0--------2--------2-----------------------------------------|
A|----2----------0--------2--------3-----------------------------------------|
E|----3----------2-----------------------------------------------------------|
CHORUS- 6x
e|----2----------2--------2--------0-----------------------------------------|
B|----2----------2--------2--------0-----------------------------------------|
G|----0----------2--------0--------0-----------------------------------------|
D|----0----------0--------2--------2-----------------------------------------|
A|----2----------0--------2--------3-----------------------------------------|
E|----3----------2--------0--------0-----------------------------------------|

e|---------------------------------------------------------------------------|
B|---------------------------------------------------------------------------|
G|-----------------2---------------------------------------------------------|
D|-------------------------2-------------------------------------------------|
A|-------2--------------2-------3--------------------------------------------|
E|----3--------2-------------------------------------------------------------|

Lyrics-
Verse-
As I look up at the red-torched sky,
what a beautiful sunset that I see.
Take a look towards the right,
and see nothing at all.
Look down at the cracked asphalt,
expecting your hand to graze mine.
Place it on the bench,
hoping that your leg would interphere

Chorus-
This distance is tearing me apart,
all i want to do is hold you in my arms.
I like it when we take things slow,
It takes me away from here.
Why dont you come over tonight,
and feed my lips 'til they're alright.
Alright.

Verse-
Walk down to the lake,
wondering why I can't hear your footsteps.
Down to the edge of the water,
Why is my reflection so alone?
Splash my face,
'cause your not there to wipe away my tears.

CHORUS- 2x

| /  slide up
| \  slide down
| h  hammer-on
| p  pull-off
| ~  vibrato
| +  harmonic
| x  Mute note
=============================================================================
Comments