Misc Unsigned Bands - Six Foot Stump - Kallieghs Song Chords & Tabs

 

Six Foot Stump - Kallieghs Song Chords & Tabs

Misc Unsigned Bands Chords & Tabs

Version: 1 Type: Tab 0 ratings
1 star 2 stars 3 stars 4 stars 5 stars
comments

Six Foot Stump - Kallieghs Song Tab

   
guitarwizard15.tripod.com
USA, We're from Munice, IN. I know once you  visit our webiste you might think
that we're just a bunch of kids messing around but we're not we're very serious.
We really wish that u would let us put this tab on our website it would mean alot! thnx!!!!

------------------------------------------------------------------------------
			     "Kaliegh's Song" - Six Foot Stump
-------------------------------------------------------------------------------
Tabbed by: Austin Tinkle
Email: electricgod_ay@hotmail.com

Tuning: Standard

(VERSE) (Guitar 1)
(Play this 4x P.M. on last time play not palm muted)
e|---------------------------------------------------------------------------|
B|---------------------------------------------------------------------------|
G|-5-5-5-5-------------------------------------------------------------------|
D|-5-5-5-5-5-5-5-5-7-7-7--3--2-----------------------------------------------|
A|-3-3-3-3-5-5-5-5-7-7-7--3--2—----------------------------------------------|
E|---------3-3-3-3-5-5-5--1--0-----------------------------------------------|

(VERSE) (Guitar 2)
(Play this 4x)
e|---------------------------------------------------------------------------|
B|---------------------------------------------------------------------------|
G|-----5---------------------------------------------------------------------|
D|---5---5-----5-------7-------3------2--------------------------------------|
A|-3---------5---5---7---7---3------2----------------------------------------|
E|---------3-------5-------1------0------------------------------------------|

(Chorus) (play this 4x) (on the last time let the last note ring) 
e|---------------------------------------------------------------------------|
B|---------------------------------------------------------------------------|
G|--------------5-5-5-3-3----------------------------------------------------|
D|-3-3-3-5-55-5-5-5-5-3-3-3--------------------------------------------------|
A|-3-3-3-5-55-5-3-3-3-1-1-3--------------------------------------------------|
E|-1-1-1-3-33-3-----------1--------------------------------------------------|
[ Tab from: http://www.guitartabs.cc/tabs/m/misc_unsigned_bands/six_foot_stump_kallieghs_song_tab.html ]
(Interlude)
e|-----5-6-----5-6-5--------5-6-----5-6-5--------5-6-----5-6-5--------5-6-----5-6-5-------------|
B|---6-------6-------6----6-------6-------6----6-------6-------6----6-------6--------\\\\\\\\\--|
G|-5-------5------------5-------5------------5-------5------------5-------5----------\\\\\\\\\--|
D|----------------------------------------------------------------------------------------------|
A|----------------------------------------------------------------------------------------------|
E|----------------------------------------------------------------------------------------------|

(Solo guitar 1)
e|---------------------------------------------------------------------------|
B|---------------------------------------------------------------------------|
G|---------------------------------------------------------------------------|
D|-5br-3----------5br-3------------------------------------------------------|
A|-----5-3-5br-3-3-----5-3-5br-3----------3-5-5br-3h5p3-3---3-5-5br-3h5p3----|
E|------------------------------5br-3--3-5---------------3-5-----------------|

e|-----------------------8-xx-10-xx-12-12-12p9h12----------------------------|
B|-----------------------8-xx-10-xx-12-12--------12-9br--------------12—-12--|
G|-----------------------8-xx-10-xx-12-12----------------------9-11br—-11—---|
D|-5br-3----------5-5br-3------------------------------9-9-9h11--------------|
A|------5-3-5br-3-3------5-3-------------------------------------------------|
E|---------------------------------------------------------------------------|

e|-----12-12-12p9h12-------12/17-15vvv-17-17br-15-15-15\0--------------------|
B|------------------12-9br---------------------------------------------------|
G|-11br----------------------------------------------------------------------|
D|---------------------------------------------------------------------------|
A|---------------------------------------------------------------------------|
E|---------------------------------------------------------------------------|

Verse 4x 
Chorus 4x
Verse 4x
Chorus 4x
Interlude 1x
Solo 1x
Verse again 4x
 
| br bend release
| b  bend hold
| /  slide up
| \  slide down
| h  hammer-on
| p  pull-off
| ~  vibrato
| +  harmonic
| x  Mute note
===============================================================================
Comments