Misc Unsigned Bands - Silent View - Dissolved Chords & Tabs

 

Silent View - Dissolved Chords & Tabs

Misc Unsigned Bands Chords & Tabs

Version: 1 Type: Tab

Silent View - Dissolved Tab

   
Dissolved (from 2010 album: Mask Without Face) tabbed by Rob


Intro/verse

g----------0~-----------------0--|
d----------5------4-----4---4-4--|
a----7--------7---5-----5---5----| X6 (only twice for intro, "pm" the open E often)
e----0-0-0------(0)--0-0---0-----|

The fills before the vocal starts are simply substituting the 2nd to a 4th then to the 
7th, there is also
the descending semi tone thing that occurs before the second verse vocal starts on the 
16th and
finishes on the 8th...

Pre-Chorus
g---------0---0---0-----0---0---|
d----5s-7-7---4---5-----5---5---|
a----7s-9-9-5-----7-----7---7---| x2 (second time on intro play open Em before chorus)
e----0------0--(0)-0-0-0---0-0--|

Chorus
C Em open chords x4 usually

Bridge C5 E5
pre solo C5 E5 slide C5 slide B5

Solo

e---------------------------------------------------|
b------------7-8p7-------------7h8-7----------------|
g----------7-------9~----------------9----9--9------|
d--------9-------------------9---------7----7-7-----|
a----7h9-----------------7h9------------------------|
e---------------------------------------------------|

e----------------------------------------------------------------15~----|
b----7h8-7------10-8-8-8p7-----------3--3-5-s10-8--7-----8s12----12~----|
g----------9-7-------------9-9s--2-4-----------------9-7-7s11-11-11~----|
d-----------------------------------------------------------------------|
a-----------------------------------------------------------------------|
e-----------------------------------------------------------------------|
[ Tab from: http://www.guitartabs.cc/tabs/m/misc_unsigned_bands/silent_view_dissolved_tab.html ]
e----------------------------------------------------------------------------|
b----------------------------------------------------------------------------|
g---------12-------12-------12-------12------12-------14-------14-------14---|
d---12h14----12h14----12h14----12h14----12s14h16-14h16---14h16----14h16------|
a----------------------------------------------------------------------------|
e----------------------------------------------------------------------------|

really hammer section
e---------------------------------------------------------------15-17v-------|
b---------------------------------------------------------15-17--------17----|
g-17p14----17p14----17p14----19p14----17p14----14-14-14h17---------------16s-|
d-------16-------16-------16-------16-------16-------------------------------|
a----------------------------------------------------------------------------|
e----------------------------------------------------------------------------|

e------------------------------------------------------------------|
b------------------------------------------------------------------|
g-14-12v---12----12---12--12--11~--11h12---------------------------|
d--------14--14--14b--14b-14b-12~--------12-h14~-------------------|
a------------------------------------------------------------------|
e------------------------------------------------------------------|

Outro over bridge chords

e------------------------|
b----8----7---7-----7----|
g---10b---9b--9b(r)-9----| X8 or so
d------------------------|

Ending

e---------------------------------|
b----8----7-------7h8-------------|
g---10b---9v--7~------7-h9~-------|
d----------------------------9~---|

Song goes: Intro Verse Chorus Verse Chorus Bridge Solo Verse Chorus Outro