Misc Unsigned Bands - Sic N The Head - Putrid Chords & Tabs

 

Sic N The Head - Putrid Chords & Tabs

Misc Unsigned Bands Chords & Tabs

Version: 1 Type: Tab 0 ratings
1 star 2 stars 3 stars 4 stars 5 stars
comments

Sic N The Head - Putrid Tab

----------------------------------------------------------------------------
			     Putrid - Sic N The Head
----------------------------------------------------------------------------
Tabbed by:Satan's_Helper
Email:shagy2dope13@hotmail.com
[ Tab from: http://www.guitartabs.cc/tabs/m/misc_unsigned_bands/sic_n_the_head_putrid_tab.html ]
Tuning:Drop D
Intro
e|--------------------------------------|
B|------0--------0--------0------0------|
G|----0--0-----0--0-----0--0-----0------| 2x
D|---0----0---0----0---0----0---0-------|
A|--2--------2--------1--------0--------|
E|-0--------3--------2--------1---------|
Riff 1
e|----------------------------------------------------------|
B|----------------------------------------------------------|
G|----------------------------------------------------------|
D|------------2-----2-----2-----2-----2-----2-----2-----2---|
A|------------2-----2-----2-----2-----2-----2-----2-----2---|
E|--------0-0-0-0-0-0-0-0-0-0-0-0-0-0-2-0-0-2-0-0-2-0-0-2---|
  1 2 3 4
e|---------------------------------------------------|
B|---------------------------------------------------|
G|---------------------------------------------------|
D|-----2-----2-----2-----2-----1-----1-----1-----1---| 2x both bars
A|-----2-----2-----2-----2-----1-----1-----1-----1---|
E|-0-0-0-0-0-0-0-0-0-0-0-0-0-0-1-0-0-1-0-0-1-0-0-1---|
Riff 2                              2nd time
e|---------------------------------|--------|
B|---------------------------------|--------|
G|---------------------------------|--^-----|
D|-----2 -----2 -----2 -----1 -----|--^-----|
A|-----2 -----2 -----2 -----1 --^--|--2-----|
E|-0-0-0 -0-0-2 -0-0-0 -0-0-1 -^1^-|--------|
Riff 3
e|------------------------------------------------------|
B|------------------------------------------------------|
G|--4-5-6-7-----------------4-5-6-7---------------------| 2x
D|--4-5-6-7-----------------4-5-6-7---------------------|
A|--2-3-4-5-----------------2-3-4-5---------------------|
E|----------555-444-333-222---------5555444433332222----|
                                        2x    last time|
e|------------------------------------------|-----|---|
B|------------------------------------------|-----|
G|-4-5-6-7------------------4-5-6-7---------|-----|
D|-4-5-6-7------------------4-5-6-7-7-6-5-4-|-2---|
A|-2-3-4-5------------------2-3-4-5-7-6-5-4-|-2---|
E|---------5555444433332222---------5040302-|00---|

Riff 1
Riff 2
Riff 3

Riff 4
Comments