Misc Unsigned Bands - Sharp Side Up - Teenman Chords & Tabs

 

Sharp Side Up - Teenman Chords & Tabs

Misc Unsigned Bands Chords & Tabs

Version: 1 Type: Tab

Sharp Side Up - Teenman Tab

-------------------------------------------------------------------------------
Sharp Side Up - Teenman
-------------------------------------------------------------------------------
Artist: Sharp Side Up
Song: Teenman
Album: Deep In The City
Year: 2006
Tabbed By : Sean Walkington
e-mail: seanwalkington2003@hotmail.com

www.freewebs.com/sharpsideup

Tuning:

Intro

e|---------------------------------------------------------------------------|
B|---------------------------------------------------------------------------|
G|---------------------------------------------------------------------------|
D|-----0-0-2------0-0-2------0-0-2--3-3-2-2-0--------------------------------|
A|-3-3--------3-3--------3-3-------------------------------------------------|
E|---------------------------------------------------------------------------|

Verse
[ Tab from: http://www.guitartabs.cc/tabs/m/misc_unsigned_bands/sharp_side_up_teenman_tab.html ]
e|---------------------------------------------------------------------------|
B|---------------------------------------------------------------------------|
G|-5-5-5-5-5-5-5-5-5-5-5-5-5-5-5-5-7-7-7-7-7-7-7-7-7-7-7-7-7-7-7-7-----------|
D|-5-5-5-5-5-5-5-5-5-5-5-5-5-5-5-5-7-7-7-7-7-7-7-7-7-7-7-7-7-7-7-7-----------|
A|-3-3-3-3-3-3-3-3-3-3-3-3-3-3-3-3-5-5-5-5-5-5-5-5-5-5-5-5-5-5-5-5-----------|
E|---------------------------------------------------------------------------|
     -----------P.M.-----------   -----------P.M.----------- 

e|---------------------------------------------------------------------------|
B|---------------------------------------------------------------------------|
G|---------------------------------------------------------------------------|
D|-7-7-7-7-7-7-7-7-7-7-7-7-7-7-7-7-5-5-5-5-5-5-5-5-5-5-5-5-5-5-5-5-----------|
A|-7-7-7-7-7-7-7-7-7-7-7-7-7-7-7-7-5-5-5-5-5-5-5-5-5-5-5-5-5-5-5-5-----------|
E|-5-5-5-5-5-5-5-5-5-5-5-5-5-5-5-5-3-3-3-3-3-3-3-3-3-3-3-3-3-3-3-3-----------|
     -----------P.M.-----------   -----------P.M.----------- 

Chorus

e|---------------------------------------------------------------------------|
B|---------------------------------------------------------------------------|
G|-----------------5-5-5-5-7-7-7-7-----------------5-5-5-5-------------------|
D|-3-3-3-3-5-5-5-5-5-5-5-5-7-7-7-7-3-3-3-3-5-5-5-5-5-5-5-5-----5-3---3---3---|
A|-3-3-3-3-5-5-5-5-3-3-3-3-5-5-5-5-3-3-3-3-5-5-5-5-3-3-3-3-3-3-----5---5-----|
E|-1-1-1-1-3-3-3-3-----------------1-1-1-1-3-3-3-3---------------------------|

Structure 

Intro x2
Verse x2
Chorus x2
Intro x2
Verse x2
Chorus x2
Intro x4