Misc Unsigned Bands - Severe Punishment - Concrete Chords & Tabs

 

Severe Punishment - Concrete Chords & Tabs

Misc Unsigned Bands Chords & Tabs

Version: 1 Type: Bass Tab 0 ratings
1 star 2 stars 3 stars 4 stars 5 stars
comments

Severe Punishment - Concrete Bass Tab

   
Band - Severe Punishment
Song - Concrete (bass solo)
Date - 2005
Written by - Trevor Fast and Justin Larkin of Severe Punishment
Tabbed by - Justin Larkin  

G||-------------------------||
D||-0-5-0-7-0-8-0-5-0-7-0-8-|| 
A||-------------------------||
E||-------------------------||
[ Tab from: http://www.guitartabs.cc/tabs/m/misc_unsigned_bands/severe_punishment_concrete_btab.html ]
G||-------------------------||
D||-0-5-0-7-0-8-0-5-0-7-0-8-|| 
A||-------------------------||
E||-------------------------||

G||-------------------------||
D||-0-5-0-8-0-7-0-5-0-8-0-7-|| 
A||-------------------------||
E||-------------------------||

G||-------------------------||
D||-0-5-0-8-0-7-0-5-0-8-0-7-|| 
A||-------------------------||
E||-------------------------||

If you would like to check out our lyrics, go to All Good Lyrics.com and search "Severe Punishment."
Comments