Misc Unsigned Bands - Seafaring Platypus - Jacey Chords & Tabs

 

Seafaring Platypus - Jacey Chords & Tabs

Misc Unsigned Bands Chords & Tabs

Version: 1 Type: Bass Tab 0 ratings
1 star 2 stars 3 stars 4 stars 5 stars
comments

Seafaring Platypus - Jacey Bass Tab

Seafaring Platypus - Jacey

First four bars no bass

Intro
E----------------------------------------------------------------|
A------------------------------------------------3-3-3-3-3-3-3-3-|
D-----------------0-0-0-0-0-0-0-0-2-2-2-2-2-2-2-2----------------|
G-0-0-0-0-0-0-0-0------------------------------------------------|

Verse 1
E----------------------------------------------------------------|
A------------------------------------------------3-3-3-3-3-3-3-3-|
D-----------------0-0-0-0-0-0-0-0-2-2-2-2-2-2-2-2----------------|
G-0-0-0-0-0-0-0-0------------------------------------------------|

Chorus
E-3-3-3------------------|
A------3-3-3-5-5-5-3-3-3-|
D------------------------|
G------------------------|
[ Tab from: http://www.guitartabs.cc/tabs/m/misc_unsigned_bands/seafaring_platypus_jacey_btab.html ]
Verse 2
E----------------------------------------------------------------|
A------------------------------------------------3-3-3-3-3-3-3-3-|
D-----------------0-0-0-0-0-0-0-0-2-2-2-2-2-2-2-2----------------|
G-0-0-0-0-0-0-0-0------------------------------------------------|

Chorus
E-3-3-3------------------|
A------3-3-3-5-5-5-3-3-3-|
D------------------------|
G------------------------|

Solo
E----------------------------------------------------------------|
A------------------------------------------------3-3-3-3-3-3-3-3-|
D-----------------0-0-0-0-0-0-0-0-2-2-2-2-2-2-2-2----------------|
G-0-0-0-0-0-0-0-0------------------------------------------------|

Chorus
E-3-3-3------------------|
A------3-3-3-5-5-5-3-3-3-|
D------------------------|
G------------------------|
Comments