Misc Unsigned Bands - Scenes From A Movie - Set Fire Chords & Tabs

 

Scenes From A Movie - Set Fire Chords & Tabs

Misc Unsigned Bands Chords & Tabs

Version: 1 Type: Tab 0 ratings
1 star 2 stars 3 stars 4 stars 5 stars
comments

Scenes From A Movie - Set Fire Tab

Scenes From A Movie
Set Fire Tab

These guys freaking rock my socks, check 'em out @purevolume.com/scenesfromamoviewv
My first tab but i can't see any differences between my tab and the song - put the tab to use, please...
By Tom Mata
Email: tmata_89@yahoo.com

E- -------------55----------------------------------------------|
B- 0-0-7-0-7-0-7--8-7-5-5-7-8-7-5-7-5-7-5-7-5-7-5-----5-0-----0-|
G- ------------------------------7---7---7---7---7-6-7-7-6-7-6--|
D- -------------------------------------------------------------|
A- -------------------------------------------------------------|
E- -------------------------------------------------------------|
[ Tab from: http://www.guitartabs.cc/tabs/m/misc_unsigned_bands/scenes_from_a_movie_set_fire_tab.html ]
E- ------------55----------------10-10-10-9-10-12-10-9-10-9-10-|
B- 0-7-0-7-0-7---8-7-5-5-7-8-7-5-------------------------------|
G- ------------------------------------------------------------|
D- ------------------------------------------------------------|
A- ------------------------------------------------------------|
E- ------------------------------------------------------------|

E- 12-10-9-10-9-12-14-14-14-14-14-14-14-14---------------------|
B- ------------------------------------------------------------|
G- ------------------------------------------------------------|
D- ------------------------------------------------------------|
A- ------------------------------------------------------------|
E- ------------------------------------------------------------|
Comments