Misc Unsigned Bands - Scarred 4 Life - Aint Even Close Chords & Tabs

 

Scarred 4 Life - Aint Even Close Chords & Tabs

Misc Unsigned Bands Chords & Tabs

Version: 1 Type: Bass Tab 0 ratings
1 star 2 stars 3 stars 4 stars 5 stars
comments

Scarred 4 Life - Aint Even Close Bass Tab

to hear the music visit*****cut and paste in address bar *******
www.onlinerock.com/musicians/scarred4life 

                "Ain't Even Close"  Copyright 2002 all rights reserved
                By: "Scarred 4 Life"

intro
G------------------------------------------------------------------------------
D------------------------------------------------------------------------------
A-----555-3--------------3-555-3-------------3-555-3--------3-5----------------
E------------5-3-5-0-3-5---------5-3-5-0-3-5--------5-3-5-0-----5--------------

[ Tab from: http://www.guitartabs.cc/tabs/m/misc_unsigned_bands/scarred_4_life_aint_even_close_btab.html ]
verse
G----------------
D----------------
A-------3-5------
E-----5-----5---- 


walk down into bridge
G------------------------
D------------------------
A------------------------
E-----0-5-0-4-0-3-0-2----


bridge
G--------------------
D--------------------
A--------------------
E-----0-0-2-0-5-2----


walk back up to fill before the 2nd verse
G--------------------------
D--------------------------
A--------------------------
E-----0-0-2-0-3-0-4-5------
 

we'll cover the next fill piece and the rest of the song next time. 
updated 8-13-00
Jeff Maunus
Bass Player for Scarred 4 Life
Comments