Misc Unsigned Bands - Scarletts Tomb - Tsp Chords & Tabs

 

Scarletts Tomb - Tsp Chords & Tabs

Misc Unsigned Bands Chords & Tabs

Version: 1 Type: Tab 0 ratings
1 star 2 stars 3 stars 4 stars 5 stars
comments

Scarletts Tomb - Tsp Tab

   
A brand new band that I checked out...so you check it out!

----------------------------------------------------------------------------
			     T.S.P. - Scarlett's Tomb
----------------------------------------------------------------------------

Tabbed by: J.Woo
Email: capeacheo@hotmail.com

This is a sick new song by this band, well their first song, check it out!

Tuning: Drop D

Clean Intro
e|----------------------------------------------------------------------|
B|----------------------------------------------------------------------|
G|----------------------------------------------------------------------|
D|-0--0-0----------------------------0--0-0----------------3------------|  x2
A|-0--0-0-7-8-7-5--5-3-5-3-2-3-2-0---0--0-0-7-8-7-5--5-3-5---5----------|
D|-0--0-0-0-0-0-0--0-0-0-0-0-0-0-0---0--0-0-0-0-0-0--0-0-0---0----------|

(Chords played after many times but in that order)
e|----------------------------------------------------------------------|
B|----------------------------------------------------------------------|
G|----------------------------------------------------------------------|
D|--3----5----7----2----------------------------------------------------|
A|--5----7----8----3----------------------------------------------------|
D|--0----0----0----0----------------------------------------------------|

Distorted Intro
e|----------------------------------------------------------------------|
B|----------------------------------------------------------------------|
G|----------------------------------------------------------------------|
D|-0-0-2-0--/8~-----0-2-3-0-2-3-0-2----0-0-2-0--/8~---0-2-3-0-3-5-0-6-5-|
A|-0-0-2-0----------0-2-3-0-2-3-0-2----0-0-2-0--------0-2-3-0-3-5-0-6-5-|
D|-0-0-2-0----------0-2-3-0-2-3-0-2----0-0-2-0--------0-2-3-0-3-5-0-6-5-|

Verse 1 (Every note except the notes on the high D is palm muted)
Part 1                           Part 2
e|-------------------------/-------------------------------------------------|
B|-------------------------/-------------------------------------------------|
G|-------------------------/-------------------------------------------------|
D|---0---0---0---3---3---1-/----3---3---3---2---2---2---0---0---0---0---0--0-|
A|--0---0-------3---3------/---0---0-------0---0-------0---0-------0---0-----|
D|-0---0---0---3---3---1---/--0---0---0---0---0---0---0---0---0---3---2---0--|


Chorus (Distortion)
e|--------------------------------------------------------------------------|
B|--------------------------------------------------------------------------|
G|--------------------------------------------------------------------------|
D|-0-0-2-0--/8~----------------------0-0-2-0--/8~-----3-5b7r5-3-------------|
A|-0-0-2-0------------3-----5/7-5----0-0-2-0------3-5-----------5-----------|
D|-0-0-2-0------0-3-5---3-5----------0-0-2-0--------------------------------|

e|--------------------------------------------------------------------------|
B|--------------------------------------------------------------------------|
G|--------------------------------------------------------------------------|
D|-0-0-2-0--/8~----------------------0-0-2-0--/8~-----3-5b7r5-3-------------|
A|-0-0-2-0------------3-----3-5-3----0-0-2-0------3-5-----------5-----------|
D|-0-0-2-0------0-3-5---3-5----------0-0-2-0--------------------------------|

Verse 2 (Every note except the notes on the high D is palm muted)
Part 1                           Part 2
e|-------------------------/-------------------------------------------------|
B|-------------------------/-------------------------------------------------|
G|-------------------------/-------------------------------------------------|
D|---0---0---0---3---3---1-/----3---3---3---2---2---2---0---0---0---0---0--0-|
A|--0---0-------3---3------/---0---0-------0---0-------0---0-------0---0-----|
D|-0---0---0---3---3---1---/--0---0---0---0---0---0---0---0---0---3---2---0--|
[ Tab from: http://www.guitartabs.cc/tabs/m/misc_unsigned_bands/scarletts_tomb_tsp_tab.html ]
Verse 2 Fill (Comes in after 4 bars)
e|---------------------------------------------------------    --------------|
B|----15--------15-------15-----18--------18--------16-----    -18--22b24r22-|
G|-------14--------14--------------17--------17------------ x4 --------------|
D|-12--------12-------12-----15--------15--------13--------    --------------|
A|---------------------------------------------------------    --------------|
D|---------------------------------------------------------    --------------|

Chorus (Distortion)
e|--------------------------------------------------------------------------|
B|--------------------------------------------------------------------------|
G|--------------------------------------------------------------------------|
D|-0-0-2-0--/8~----------------------0-0-2-0--/8~-----3-5b7r5-3-------------|
A|-0-0-2-0------------3-----5/7-5----0-0-2-0------3-5-----------5-----------|
D|-0-0-2-0------0-3-5---3-5----------0-0-2-0--------------------------------|

e|--------------------------------------------------------------------------|
B|--------------------------------------------------------------------------|
G|--------------------------------------------------------------------------|
D|-0-0-2-0--/8~----------------------0-0-2-0--/8~-----3-5b7r5-3-------------|
A|-0-0-2-0------------3-----3-5-3----0-0-2-0------3-5-----------5-----------|
D|-0-0-2-0------0-3-5---3-5----------0-0-2-0--------------------------------|

Bridge
Distorted x 2
e|--------------------------------------------------------------------------|
B|--------------------------------------------------------------------------|
G|--------------------------------------------------------------------------|
D|-3-----3-----3---5-----5-----5---7-----7-----7---2-----2-----2------------|
A|-5-----5-----5---7-----7-----7---8-----8-----8---3-----3-----3------------|
D|-0-0-0-0-0-0-0-0-0-0-0-0-0-0-0-0-0-0-0-0-0-0-0-0-0-0-0-0-0-0-0------------|
(Pm  . .   . .   .   . .   . .   .   . .   . .   .   . .   . .   )

Clean (Chords played after many times but in that order) till end of song
e|--------------------------------------------------------------------------|
B|--------------------------------------------------------------------------|
G|--------------------------------------------------------------------------|
D|--3----5----7----2--------------------------------------------------------|
A|--5----7----8----3--------------------------------------------------------|
D|--0----0----0----0--------------------------------------------------------|

Bridge Fill (Comes in 2 bars after chords)
e|--------------------------------------------------------------------------|
B|--------------------------------------------------------------------------|
G|----------------14---------------------15-14------------------------------|
D|-------12h14p12----15---------14h15p14--------------15h17p15-17/19--------|
A|----12---------------------14--------------------15-----------------------|
D|-12---------------------14--------------------15--------------------------|

e|--------------------------------------------------------------------------|
B|--------------------------------------------------------------------------|
G|----------------12-10-----------------------------------------------------|
D|-------10h12p10-------12--------------------------------------------------|
A|----10--------------------------------------------------------------------|
D|-10-----------------------------------------------------------------------|

Outro (fade out)
Part 1                           Part 2
e|-------------------------/-------------------------------------------------|
B|-------------------------/-------------------------------------------------|
G|-------------------------/-------------------------------------------------|
D|---0---0---0---3---3---1-/----3---3---3---2---2---2---0---0---0---0---0--0-|
A|--0---0-------3---3------/---0---0-------0---0-------0---0-------0---0-----|
D|-0---0---0---3---3---1---/--0---0---0---0---0---0---0---0---0---3---2---0--|

e|--------------------------------------------------------------------------|
B|--------------------------------------------------------------------------|
G|--------------------------------------------------------------------------|
D|---------12+--------------------------------------------------------------|
A|-----12+------------------------------------------------------------------|
D|-12+----------------------------------------------------------------------|

Order

Clean Intro
Chords
Distorted Intro
Verse 1 Part 1 - x 4
Verse 1 Part 2 - x 2
Chorus
Verse 2 Part 1 - x 4
Verse 2 Part 2 - x 2 (With Fill)
Chorus
Distorted Bridge - x2
Clean Bridge - (till outro)
Bridge Fill - 2 bars after Clean Bridge
Outro - Fade


 /  slide up
 \  slide down
 h  hammer-on
 p  pull-off
 ~  vibrato
 +  harmonic
 x  Mute note
Comments