Misc Unsigned Bands - Say Anything - Alive With The Glory Of Love Chords & Tabs

 

Say Anything - Alive With The Glory Of Love Chords & Tabs

Misc Unsigned Bands Chords & Tabs

Version: 2 Type: Tab 0 ratings
1 star 2 stars 3 stars 4 stars 5 stars
comments

Say Anything - Alive With The Glory Of Love Tab

   
Band: Say Anything
Song: Alive With the Glory of Love
Album: ..Is A Real Boy
Tabber: G-MONEY
Email: tomurbo@netscape.net
http://www.sayanythingmusic.com/main.htm
Say Anything
http://www.doghouserecords.com/#
Doghouse Records
_________________________________________________________________________________________
VERSES (when i...)
E|---------------------------------------------------------------|
B|--3-3-3--22-222222-2-2--22-222222-2-2--22-222229-9-9--99-99999-|
G|--2-2-2--22-222222-2-2--22-222222-2-2--22-222229-9-9--99-99999-|
D|--x-x-x--xx-xxxxx0-0-0--00-000002-2-2--22-222229-9-9--99-99999-|
A|--2-2-2--22-22222-----------------0-0--00-000007-7-7--77-77777-|
E|---------------------------------------------------------------|
[ Tab from: http://www.guitartabs.cc/tabs/m/misc_unsigned_bands/say_anything_alive_with_the_glory_of_love_tab_ver_2.html ]
E|--------------------------------2-2-2--22-22222----------------|
B|--3-3-3--22-222222-2-2--22-222222-2-2--22-222229-9-9-9-9-9-9-9-|
G|--2-2-2--22-222222-2-2--22-222222-2-2--22-222229-9-9-9-9-9-9-9-|
D|--x-x-x--xx-xxxxx0-0-0--00-000004-4-4--44-444449-9-9-9-9-9-9-9-|
A|--2-2-2--22-22222---------------4-4-4--44-444447-7-7-7-7-7-7-7-|
E|-----------------------------------------------0-0-0-0-0-0-0-0-|


CHORUS (noooo, i won't let them take you...)
E|------2....---------------------|
B|-3....2....9....3-3-2-2-3-3-2-2-|
G|-2....2....9....2-2-2-2-2-2-2-2-|
D|-0....4....9....x-x-x-x-x-x-x-x-|     ....= simple strumming, listen to song
A|-0....4....7....2-2-2-2-2-2-2-2-|
E|-----------0....----------------|


BRIDGE (our treblinkah...is alive...)
E|----------------------------------------|
B|-2h333333-2h333333-2h333-2h333-2h333333-|
G|-2-222222-0-222222-2-222-2-222-2-222222-|
D|-0-000000-0-000000-0-000-0-000-0-000000-|
A|-0-000000-0-000000-0-000-0-000-0-000000-|
E|----------------------------------------|

SOLO
E|---------------------------------------------------------|
B|---------------------------------------------------------|
G|--6~~7-7-67~--66-66~~7-7-67~--77-77~~6-6-46~--7~~6-6-4---|~   play along with verse riff
D|---------------------------------------------------------|
A|---------------------------------------------------------|
E|---------------------------------------------------------|


1
Comments