Misc Unsigned Bands - Say Anything - Alive With The Glory Of Love Chords & Tabs

 

Say Anything - Alive With The Glory Of Love Chords & Tabs

Misc Unsigned Bands Chords & Tabs

Version: 1 Type: Tab 0 ratings
1 star 2 stars 3 stars 4 stars 5 stars
comments

Say Anything - Alive With The Glory Of Love Tab

Say Anything is...
Max Bemis (guitar, vocals, etc.)
Coby Linder (Drums)
Kevin Seaton (Bass)
Casper Adams (Guitar).

Say Anything's debut, a punk rock musical, titled "Say Anything Is A Real Boy." will
be out August 3rd, 2004 on Doghouse Records. The album was produced by Tim O'Heir
(Superdrag, Dinosaur Jr., Sebadoh, All American Rejects) and Stephen Trask (Hedwig and
The Angry Inch) --http://www.sayanythingmusic.com--

--------------------------------------------------------------------------------
"Alive With The Glory of Love(Treblinkah)" by Say Anything
	
[ Tab from: http://www.guitartabs.cc/tabs/m/misc_unsigned_bands/say_anything_alive_with_the_glory_of_love_tab.html ]
e |-0----------------|
B |-0----------------|
G |-7----------------|
D |-6----------------|
A |-7----------------|
E |-0----------------| (figure out the strumming)


e |-0---0---0---0-----------------|
B |-5---5---5---5-----------------|
G |-6---6---6---6-----------------|
D |-7---0---7---0-----------------|
A |-x---0-------7-----------------|
E |-7-----------------------------|

"...our treblinkah is alive with the glory of love...."
e |-0---------------|
B |-5---------------|
G |-6------6--------|
D |-7---------------|
A |-x---------------|
E |-7---------------|
Comments