Misc Unsigned Bands - Route 101 - My Apologies Chords & Tabs

 

Route 101 - My Apologies Chords & Tabs

Misc Unsigned Bands Chords & Tabs

Version: 1 Type: Bass Tab

Route 101 - My Apologies Bass Tab

from: my apologies (cd)
by: route 101
tabber: james trevascus

'my apologies' by route 101

tuning: standard

intro
G|---------------------------------------------------------|
D|---------------------------------------------------------| (x2)
A|---------------------------------------------------------|
E|--3-3-3-3-10-10-10-10-12-12-12-10-8-8-8-8----------------|
[ Tab from: http://www.guitartabs.cc/tabs/m/misc_unsigned_bands/route_101_my_apologies_btab.html ]
verse
G|-------------------------------------------|
D|-------------------------------------------| (x2)
A|-------------------------------------------|
E|--7-7-7-7-3-3-3-3-10-10-10-10-5-5-5-5------|

chorus
G|-------------------------------------------|
D|----------5-5-5-5-6-6-6-6------------------| (x1)
A|--------------------------6-6-6-6-6-6------|
E|--6-6-6-6----------------------------------|

the way you play it goes like this;

*intro
*chorus
*verse
*chorus
*verse
*chorus
*chorus