Misc Unsigned Bands - Room 39 - The Next Best Thing Chords & Tabs

 

Room 39 - The Next Best Thing Chords & Tabs

Misc Unsigned Bands Chords & Tabs

Version: 1 Type: Tab 0 ratings
1 star 2 stars 3 stars 4 stars 5 stars
comments

Room 39 - The Next Best Thing Tab

   
artists:room 39
date:18/5/03
album:???????
song:the next best thing
(this band is unsighned)
   ???tune half a step down???

intro
e------------------------------|
b------------------------------|
g-4444444444444444444444444444-|
d-xxxxxxxxxxxxxxxxxxxxxxxxxxxx-|
a-2222222222222222222222222222-|
e------------------------------|

pre verse
e--------------------------|-------------|
b--------------------------|-------------|
g---4----4----8--*9-8-6-8*-|*9-8-6-4*----|
d--4-4--4-4--8-8-----------|-------------|
a-2----2----6--------------|-------------|
e--------------------------|-------------|
   *=on every second time change to the other star*

verse
e----------------------|
b----------------------|
g-44444444-------------|
d-44444444-6666-4444---|
a-22222222-6666-4444---|
e----------4444-2222---|

pre chorus
e-------------------------|
b-------------------------|
g-------44444-------------|
d-22222-44444-44444-66666-|
a-22222-22222-44444-66666-|
e-00000-------22222-44444-|
[ Tab from: http://www.guitartabs.cc/tabs/m/misc_unsigned_bands/room_39_the_next_best_thing_tab.html ]
chorus
e-------------------------|
b-------------------------|
g-44444-------------------|
d-44444-22222-66666-44444-|
a-22222-22222-66666-44444-|
e-------00000-44444-22222-|

solo fig1
e---666-----------999-7-6---|
b-77---999-777-000--------9-|
g---------------------------|x4
d---------------------------|
a---------------------------|
e---------------------------|
fig2
e--------------------|--------------------|
b-777-00-1212-1111-9-|-444-555-77-55-44-2-|
g--------------------|--------------------|
d--------------------|--------------------|
a--------------------|--------------------|
e--------------------|--------------------|

e---------------------777-999-x2|last before chorus-777999777999-7---|
b-0000-1212-1111-99-7-----------|---------------------------------7--|
g-------------------------------|----------------------------------0-|
d-------------------------------|------------------------------------|
a-------------------------------|------------------------------------|
e-------------------------------|------------------------------------|

thats it thanx e-mail me wat YOU think!!!
e-mail :somethingsupthere@hotmail.com
Comments