Misc Unsigned Bands - Ridicule - Dancer In The Dark Chords & Tabs

 

Ridicule - Dancer In The Dark Chords & Tabs

Misc Unsigned Bands Chords & Tabs

Version: 1 Type: Tab 0 ratings
1 star 2 stars 3 stars 4 stars 5 stars
comments

Ridicule - Dancer In The Dark Tab

   
This is a small band from OC. 
I'm skipping the formalities. Here is the song

Enjoy

Drop D 1/2 step down

(C#)

Guitar 1 (rhythm)
|-------------------------------------|
|-------------------------------------|
|-7~~--5~~----------------------------|
|-7~~--5~~-5~~--8~~-------------------|
|-5~~--3~~-5~~--8~~-------------------|
|----------5~~--8~~-------------------| x 4

on fourth palm mute the 555xxx w/distortion

Guitar 2 (lead)
|------------------------------|
|------------------------------|
|-------------17---------------|
|-19--19--19--19---19----------|
|-17--17--17--17---17----------|
|------------------------------|

w/delay (lots of it) not exact just improv a tiny bit

Chorus?:

Guitar 1: (rhythm)
|----------------------------------|
|----------------------------------|
|-7-7---5-5------------------------|
|-7-7---5-5---5-5---8-8------------|
|-5-5---3-3---5-5---8-8------------|
|-0-0---------5-5---8-8------------|

Guitar 2: 
|-----------------------|-----------------------------|
|-----------------------|-----------------------------|
|--5/7-7-7-5/7-7-7------|------10/7-7-7-5/7-7-7-------|
|------------------5/7--|-----------------------5/7---|
|-----------------------| x3  ------------------------|
|-----------------------|     ------------------------|

Repeat twice

Guitar 1:
|--------------------|
|--------------------|
|--------------------|
|-0-0----------------|
|-0-0----------------|
|-0-0----------------| x4
[ Tab from: http://www.guitartabs.cc/tabs/m/misc_unsigned_bands/ridicule_dancer_in_the_dark_tab.html ]
Guitar 2:
|-----5--------5----------5--------5--/888--|
|-------4-5-----4-5-5------4-5--------/888--|
|-------------------------------------------|
|-0-0-------0-0-------0-0------0-0------ (this takes up two measures)
|-0-0-------0-0-------0-0------0-0----------|
|-0-0-------0-0-------0-0------0-0----------|play this during the screaming too


little fill
|--------------------------|
|--------------------------|
|--------------------------|
|-8-8-8--0-0-0-------------|
|-8-8-8--0-0-0-------------|
|-8-8-8--0-0-0-------------| repeat after each ^ during screaming

Then

|---------------------------------|
|---------------------------------|
|---------------------------------|
|-8-8-8-5-5-5-0-0-0-3-3-3---------|
|-8-8-8-5-5-5-0-0-0-3-3-3---------|
|-8-8-8-5-5-5-0-0-0-3-3-3---------| play a couple times

"to weak to move"
|-----------------------------|
|-----------------------------|
|-----------------------------|
|-5-5--7-7--8-8--10-10--------|
|-5-5--7-7--8-8--10-10--------|
|-5-5--7-7--8-8--10-10--------|

Guitar 2:
|--------------------------------------|
|--------------------------------------|
|-5/7-7-7------------------------------|
|---------5/-7-7-7---------------------|
|------------------5-3-3-3--6-6-6--3-3-| play this a lot
|--------------------------------------|


"we got our axes"
Guitar 1:
play chorus

Guitar 2:
|-------------------------|
|-------------------------|
|-5/7-7-7------------5----|
|---------5/7-7-7-5h7-----|
|-------------------------|
|-------------------------| x3

|--5---------8-5h6p5-----|
|-6-6-5-6-6-6-6-----5h6--|
|------------------------|
|------------------------|
|------------------------|
|------------------------|

Overall there are a lot of improvised parts
use the C# minor for these (Note: root 5)

|------------------------5-6-8-(10)-|
|------------------5-6-8------------|
|--------------5-7------------------|
|--------5-7-8----------------------|
|--5-7-8----------------------------|
|-----------------------------------|

excalibur627@hotmail.com
Comments