Misc Unsigned Bands - Rejected Death - Unknown Chords & Tabs

 

Rejected Death - Unknown Chords & Tabs

Misc Unsigned Bands Chords & Tabs

Version: 1 Type: Tab 0 ratings
1 star 2 stars 3 stars 4 stars 5 stars
comments

Rejected Death - Unknown Tab

Band: Rejected Death                      ~~KEY~~         
Title: Unknown                            / strum up         
Album: Rejected Death                    \ strum down            
Tabber: Brian                            pm... palm mute               
Guitarist: Brian Penglase                * let note ring            
Tuning: Standard                                  

Intro 

e|--------------------------------------------------------------------|
B|--------------------------------------------------------------------|
G|--------------------------------------------------------------------|
D|-12-12-12-12-12-12-12-12--7-7-7-7-7-7-7-7--10-10-10-10-10-10-10-10--|
A|-12-12-12-12-12-12-12-12--7-7-7-7-7-7-7-7--10-10-10-10-10-10-10-10--|
E|-10-10-10-10-10-10-12-12--5-5-5-5-5-5-5-5--8--8--8--8--8--8--8--8---|
pm.............................................................

e|--------------------|
B|--------------------|
G|--------------------|
D|-8-8-8-8-8-8-8-8----|
A|-8-8-8-8-8-8-8-8----|
E|-6-6-6-6-6-6-6-6----|
pm.................

Verse (x4)
   / /\/  /\/\/  / /\/  /\/\/  / /\/  /\/\/  / /\/  /\/\/          
e|---------------------------------------------------------------|
B|---------------------------------------------------------------|
G|-------------------------------------------3-333--33333--------|
D|-3-333--33333--7-777--77777--5-555--55555--3-333--33333--------|
A|-3-333--33333--7-777--77777--5-555--55555--1-111--11111--------|
E|-1-111--11111--5-555--55555--3-333--33333----------------------|

Bridge (x4)
   /  /  \  /  \   / /\/\   /  /  \  /  \  / /\/\       
e|---------------------------------------------------|
B|---------------------------------------------------|
G|---------------------------------------------------|
D|-12-12-12-12-12--7-7777--10-10-10-10-10--8-8888----|
A|-12-12-12-12-12--7-7777--10-10-10-10-10--8-8888----|
E|-10-10-10-10-10--5-5555--8--8--8--8--8---6-6666----|
[ Tab from: http://www.guitartabs.cc/tabs/m/misc_unsigned_bands/rejected_death_unknown_tab.html ]
Verse (x4)
   / /\/  /\/\/  / /\/  /\/\/  / /\/  /\/\/  / /\/  /\/\/       
e|---------------------------------------------------------------|
B|---------------------------------------------------------------|
G|-------------------------------------------3-333--33333--------|
D|-3-333--33333--7-777--77777--5-555--55555--3-333--33333--------|
A|-3-333--33333--7-777--77777--5-555--55555--1-111--11111--------|
E|-1-111--11111--5-555--55555--3-333--33333----------------------|

Solo (x2)

e|-------------------------------|-------------------------------|
B|-----------------5-5-5---------|----------------5-5------------|
G|---------4-4/6-------6--6\4-4--|--------4/6-6-----6-6--6\4-4---|
D|--4-4/6------------------------|-4/6-6-------------------------|
A|-------------------------------|-------------------------------|
E|-------------------------------|-------------------------------|
 (x2)
e|---------------------|
B|------7/10-10\8------|
G|-7/10-----------8\7--|
D|---------------------|
A|---------------------|
E|---------------------|

e|-------------------------------|-------------------------------|
B|-----------------5-5-5---------|----------------5-5------------|
G|---------4-4/6-------6--6\4-4--|--------4/6-6-----6-6--6\4-4---|
D|--4-4/6------------------------|-4/6-6-------------------------|
A|-------------------------------|-------------------------------|
E|-------------------------------|-------------------------------|

Outro (x2)                                            
                                                                    
e|--------------------------------------------------------------------|
B|--------------------------------------------------------------------|
G|--------------------------------------------------------------------|
D|-12-12-12-12-12-12-12-12--7-7-7-7-7-7-7-7--10-10-10-10-10-10-10-10--|
A|-12-12-12-12-12-12-12-12--7-7-7-7-7-7-7-7--10-10-10-10-10-10-10-10--|
E|-10-10-10-10-10-10-12-12--5-5-5-5-5-5-5-5--8--8--8--8--8--8--8--8---|
pm.............................................................

e|--------------------|
B|--------------------|
G|--------------------|
D|-8-8-8-8-8-8-8-8----|
A|-8-8-8-8-8-8-8-8----|
E|-6-6-6-6-6-6-6-6----|
pm.................

(x2)

e|--------------------------------------------------------------------|
B|--------------------------------------------------------------------|
G|--------------------------------------------------------------------|
D|-12-12-12-12-12-12---7-7-7-7-7-7--10-10-10-10-10-10--8-8-8-8-8-8----|
A|-12-12-12-12-12-12---7-7-7-7-7-7--10-10-10-10-10-10--8-8-8-8-8-8----|
E|-10-10-10-10-10-10---5-5-5-5-5-5--8--8--8--8--8--8---6-6-6-6-6-6----|

e|------|
B|------|
G|------|
D|--8*--|
A|--8*--|
E|--6*--|
Comments