Misc Unsigned Bands - Red Light Knights - Rodeo Clown Chords & Tabs

 

Red Light Knights - Rodeo Clown Chords & Tabs

Misc Unsigned Bands Chords & Tabs

Version: 1 Type: Tab 0 ratings
1 star 2 stars 3 stars 4 stars 5 stars
comments

Red Light Knights - Rodeo Clown Tab

   
-------------------------------------------------------------------------------
			     RODEO CLOWN - Red Light Knights
-------------------------------------------------------------------------------
Tabbed by: Gerard Cordwell
Email:

Tuning: Standard Tuning - EADGBe

Standard Tuning - EADGBe

New unsigned artist.

Intro Riff:
(Part 1)

e|------------------------------------------|
B|------------------------------------------|
G|------------------------------------------|
D|--12--/--14--\--12--\--9------------------|	 repeat 3x
A|--10--/--12--\--10--\--7------------------|
E|------------------------------------------|

(Part 2)
On fourth time round, do this:
e|------------------------------------------|
B|------------------------------------------|
G|------------------------------------------|
D|--12--/--14--\--12--/--14-----------------|
A|--10--/--12--\--10--/--12-----------------|
E|------------------------------------------|

Verse 1 - Nothing played.

Chorus - Play the whole intro riff once

Verse 2 - Nothing played.

Chorus - Again, repeat whole intro riff once

SOLO:

e|---15----15-12-10--12-10-------------------------------|
B|-------------------------------------------------------|
G|---------------------------16----16-14-12-14-16--------|
D|-------------------------------------------------------|
A|-------------------------------------------------------|
E|-------------------------------------------------------|

(Then this);

e|---15----15-12-10--12-10-1215--15--15-15-12-----------|
B|-------------------------------------------------------|
G|-------------------------------------------------------|
D|-------------------------------------------------------|
A|-------------------------------------------------------|
E|-------------------------------------------------------|

e|--------------------------------------------------------------------|
B|--------------------------------------------------------------------|
G|--------------12---12-----------------------------------------------|
D|--------12-14-----------14---------------12---------------12--------|
A|--12-14-----------------------12-h13-h14-------12-h13-h14-----------|
E|--------------------------------------------------------------------|

Now play this (like intro):
e|--------------------------------------------------------------------|
B|--------------------------------------------------------------------|
G|--------------------------------------------------------------------|
D|--12--/--14--\--12--\--9-------12--/--14--\--12-12---12-12----------|
A|--10--/--12--\--10--\--7-------10--/--12--\--10-10---10-10----------|
E|--------------------------------------------------------------------|

The lead part over this bit is:
[ Tab from: http://www.guitartabs.cc/tabs/m/misc_unsigned_bands/red_light_knights_rodeo_clown_tab.html ]
e|---------------------------12----------------12-12------------------|
B|--------------------------------------------------------------------|
G|--------------------------------------------------------------------|
D|--------------------------------------------------------------------|
A|--------------------------------------------------------------------|
E|--------------------------------------------------------------------|

Continued solo:

e|--10----12-10-12-10-12-15---15--15-12-----17-15-12--17-15-12--------|
B|--------------------------------------------------------------------|
G|--------------------------------------------------------------------|
D|--------------------------------------------------------------------|
A|--------------------------------------------------------------------|
E|--------------------------------------------------------------------|

e|--17--17---17--17--17---17--12--------------------------------------|
B|--------------------------------------------------------------------|
G|--------------------------------------------------------------------|
D|--------------------------------------------------------------------|
A|--------------------------------------------------------------------|
E|--------------------------------------------------------------------|

OUTRO:

Play this again:
e|--------------------------------------------------------------------|
B|--------------------------------------------------------------------|
G|--------------------------------------------------------------------|
D|--12--/--14--\--12--\--9-------12--/--14--\--12-12---12-12----------|
A|--10--/--12--\--10--\--7-------10--/--12--\--10-10---10-10----------|
E|--------------------------------------------------------------------|

The lead part over this bit is:

e|---------------------------12-----12--------------------------------|
B|--------------------------------------------------------------------|
G|--------------------------------------------------------------------|
D|--------------------------------------------------------------------|
A|--------------------------------------------------------------------|
E|--------------------------------------------------------------------|

The Red Light Knights are a great unsigned, unheard of band. They are brothers and
cousins to the greatest band ever, Kings Of Leon and come from Oklahoma, USA. This
is a pretty simple song really and it completely f*ckin' rocks! Listen to the song
and have fun!

P.S. I strongly, so very strongly advise you to listen to the kings of Leon, for
obvious reasons. If not so obvious, I mean they rule man! Also, I recommend you
shower every 2 days. I should stop typing now shouldn't I? 

| /  slide up
| \  slide down
| h  hammer-on
| p  pull-off
| ~  vibrato
| +  harmonic
| x  Mute note
===============================================================================
Comments