Misc Unsigned Bands - Rebels - Rebellion Chords & Tabs

 

Rebels - Rebellion Chords & Tabs

Misc Unsigned Bands Chords & Tabs

Version: 1 Type: Tab 0 ratings
1 star 2 stars 3 stars 4 stars 5 stars
comments

Rebels - Rebellion Tab

   
e--------------------------------------|
B--------------------------------------|
G--------------------------------------|
D--------------------------------------|
A----------3-3-3-3-3---------5-5-5-5-5-|
E-5-5-5-5-5---------3-3-3-3-3----------|
- riff is played softly in background throughout song
(except solo and outro)

Intro:

e---------------------------------------|
B---------------------------------------|
G---------------------------------------|
D---------------------------------------|
A----------3-3-3-3-3---------5-5-5-5-5--|
E-5-5-5-5-5---------3-3-3-3-3-----------| x2

e------------------------------------------------------------|
B------------------------------------------------------------|
G------------------------------------------------------5---7-|
D-------------------------------------------------5--7-5-5-7-|
A----------3-3-3-3-3---------5-5-5-3-0------------5--7-3-5-5-|
E-5-5-5-5-5---------3-3-3-3-3----------0-3--3-5-0-3--5---3---| let it ring

Verse 1

e------------------------------------------|
B------------------------------------------|
G-----------5-5-5-5-5-----------7-7-7-7-7--|
D-7-7-7-7-7-5-5-5-5-5-5-5-5-5-5-7-7-7-7-7--|
A-7-7-7-7-7-3-3-3-3-3-5-5-5-5-5-5-5-5-5-5--|
E-5-5-5-5-5-----------3-3-3-3-3------------| x2

e-----------------------------------------|
B-----------------------------------------|
G-----------5-5-5-5-5-----------7-7-7-5---|
D-7-7-7-7-7-5-5-5-5-5-5-5-5-5-5-7-7-7-5-7-|
A-7-7-7-7-7-3-3-3-3-3-5-5-5-5-5-5-5-5-3-7-| let it ring and do vibrato
E-5-5-5-5-5-----------3-3-3-3-3---------5-|

(background music stops)
Solo:
[ Tab from: http://www.guitartabs.cc/tabs/m/misc_unsigned_bands/rebels_rebellion_tab.html ]
e--------------------------------------------------|
B--------------------------------------------------|
G--------------------------------------------------|
D--------------------------------------------------|
A-------12-----15-12-------------------------------|
E-0-2-15--12-15-----15-12-15-12-10-12-9-5--9-5-3-0-|

e--------------------------------------------|
B---10----13-10------------------------------|
G-12--9-12-----12-9-12-----------------------|
D---------------------12-10------------------|
A--------------------------12-10-7--5-3------|
E--------------------------------------3/4/5-|

Verse 1 (again)

e------------------------------------------|
B------------------------------------------|
G-----------5-5-5-5-5-----------7-7-7-7-7--|
D-7-7-7-7-7-5-5-5-5-5-5-5-5-5-5-7-7-7-7-7--|
A-7-7-7-7-7-3-3-3-3-3-5-5-5-5-5-5-5-5-5-5--|
E-5-5-5-5-5-----------3-3-3-3-3------------| x2

e-----------------------------------------|
B-----------------------------------------|
G-----------5-5-5-5-5-----------7-7-7-5---|
D-7-7-7-7-7-5-5-5-5-5-5-5-5-5-5-7-7-7-5-7-|
A-7-7-7-7-7-3-3-3-3-3-5-5-5-5-5-5-5-5-3-7-| let it ring and do vibrato or whammy bar
E-5-5-5-5-5-----------3-3-3-3-3---------5-|

(Drums and bass lead into outro- backgroud music stops)

Outro:

e--------------------------------------|
B--------------------------------------|
G--------------------------------------|
D--------------------------------------|
A-------4-4-4-6-6-6-5-5-5--------------|
E-1-1-1-------------------4-4-4-0-0-0--| x3

e--------------------------------------|
B--------------------------------------|
G--------------------------------------|
D--------------------------6-6-2-2---3-|
A-------4-4-4-6-6-6-5-5-5--6-6-2-2---3-|
E-1-1-1--------------------4-4-0-0---1-|
Comments