Misc Unsigned Bands - Reaching Without Arms - Romance Is Dead Chords & Tabs

 

Reaching Without Arms - Romance Is Dead Chords & Tabs

Misc Unsigned Bands Chords & Tabs

Version: 1 Type: Tab 0 ratings
1 star 2 stars 3 stars 4 stars 5 stars
comments

Reaching Without Arms - Romance Is Dead Tab

   
Reaching Without Arms
www.reachingwithoutarms.tk
Romance is Dead
Lakeland, Fl


Tuning: C G C F A D
* = HARMONIC
^ = HAMMER ON/ PULL OFF
  RIFF A
D---------------------------------------------------------------
A---------------------------------------------------------------
F----4-4-4-4-4-4---4-4-4-4-4-4---5-5-5-5-5-5---5-5-5-5-5-5------
C----X-X-X-X-X-X---X-X-X-X-X-X---X-X-X-X-X-X---3-3-3-3-3-3------
G----2-2-2-2-2-2---2-2-2-2-2-2---3-3-3-3-3-3---3-3-3-3-3-3------
C------------------3-3-3-3-3-3-----------------3-3-3-3-3-3------

 RIFF B
  P.M...........
D------------------3*----------
A------------------3*----------
F------------------3*----------
C------------------------------
G--0-0--0-0--0-0---------------
C--0-0--0-0--0-0---------------
[ Tab from: http://www.guitartabs.cc/tabs/m/misc_unsigned_bands/reaching_without_arms_romance_is_dead_tab.html ]
       RIFF C               p.m...
D--------------------------------------
A--------------------------------------
F--------------------------------------
C-----------------------------0-0--2---
G-0^1^2--0^2^3--0--4^3-0^2^3--0-0--1---
C-0-1-2--0-2-3--0--4-3-0-2-3--0-0------
  
        P.M.............................
       D-------------------------------------
       A-------------------------------------
       F-------------------------------------
       C-------------------------------------
       G-0^1^2--0^2^3--0^3^4--0^4^5--0^5-6\0-
       C-0-1-2--0-2-3--0-3-4--0-4-5--0-5-6\0-

RIFF D
 P.M...
D--------------------------------
A--------------------------------
F-----------------17-17-17-17----
C-----------------16-16-16-16----
G--0-0--0-0--0-0--15-15-15-15----
C--0-0--0-0--0-0-----------------

REPEAT RIFF C 4X

  RIFF D 
 P.M..................
D---------------------------------
A---------------------------------
F-----------------------6---5-----
C-------------------------5---4---
G--4-3-0--4-3-0--4-3-0------------
C--4-3-0--4-3-0--4-3-0------------
Comments