Misc Unsigned Bands - Radiant Peppermint Hedgehogs - My Reality Chords & Tabs

 

Radiant Peppermint Hedgehogs - My Reality Chords & Tabs

Misc Unsigned Bands Chords & Tabs

Version: 1 Type: Tab 0 ratings
1 star 2 stars 3 stars 4 stars 5 stars
comments

Radiant Peppermint Hedgehogs - My Reality Tab

band : radiant peppermint hedgehogs
song : my reality


just go along with the bass to get the rythm of the 
ghost notes.

The whole song is played with medium distortion.
Intro
e----------------------------------------------------------------
b----------------------------------------------------------------
g----------------------------------------------------------------
d----------------------------xxxxx-xxxxx-------------------------x1
a---------------xxxxx-xxxxx--xxxxx-xxxxx-xxxxx-xxxxx-------------
e--xxxxx-xxxxx--xxxxx-xxxxx--xxxxx-xxxxx-xxxxx-xxxxx-xxxxx-xxxxx-

e------------
b------------
g--66666666--
d--77777777--x1
a--77777777--
e--55555555--

Verse
e---------------------------------------
b---------------------------------------
g--66666666-22222222-88888888-44444444--
d--77777777-33333333-99999999-55555555-- x8
a--77777777-33333333-99999999-55555555--
e--55555555-11111111-77777777-33333333--
[ Tab from: http://www.guitartabs.cc/tabs/m/misc_unsigned_bands/radiant_peppermint_hedgehogs_my_reality_tab.html ]
Chorus
e------------------------------------------------------------------
b------7------7-----7------7-----7--------4-----4-----4-----4-----4
g------7------7-----7------7-----7--------4-----4-----4-----4-----4
d----7------7-----7------7-----7--------4-----4-----4-----4-----4--x4
a--5------5-----5------5-----5--------2-----2-----2-----2-----2----
e------------------------------------------------------------------

Bridge
e----------------------
b----------------------
g--6-----2-----8-----4-
d--7-----3-----9-----5- x1
a--7-----3-----9-----5-
e--5-----1-----7-----3-

Solo x2
e----------------------    -----------------
b----8----8----8----7--    --12-12-12-12-12-
g-6/9--6/9--6/9--6/8---    -----------------
d---------------------- x4 -----------------x1
a----------------------    -----------------
e----------------------    -----------------

Outro
e----------------------------------------------------------------
b----------------------------------------------------------------
g----------------------------------------------------------------
d----------------------------xxxxx-xxxxx-------------------------x1
a---------------xxxxx-xxxxx--xxxxx-xxxxx-xxxxx-xxxxx-------------
e--xxxxx-xxxxx--xxxxx-xxxxx--xxxxx-xxxxx-xxxxx-xxxxx-xxxxx-xxxxx-

intro
verse
chorus
verse
chorus
solo
chorus
outro
Comments