Misc Unsigned Bands - Radiant Peppermint Hedgehogs - My Reality Chords & Tabs

 

Radiant Peppermint Hedgehogs - My Reality Chords & Tabs

Misc Unsigned Bands Chords & Tabs

Version: 1 Type: Bass Tab 0 ratings
1 star 2 stars 3 stars 4 stars 5 stars
comments

Radiant Peppermint Hedgehogs - My Reality Bass Tab

Intro x4
g--------------------------------------
d--------------------------------------
a-------------------------------------- 
e-5-0-5-0-5-0-5-0--1-0-1-0-1-0-1-0-----

g--------------------------------------
d--------------------------------------
a--------------------------------------
e--2-0-2-0-2-0-2-0--3-0-3-0-3-0-3-0----

Verse
g--------------------------------------
d--------------------------------------
a-------------------------------------- x4
e-55555555-11111111-77777777-33333333--
[ Tab from: http://www.guitartabs.cc/tabs/m/misc_unsigned_bands/radiant_peppermint_hedgehogs_my_reality_btab.html ]
Chorus
g--------------------
d--------------------
a-------------------- x4
e--5----2----5----2--

Song break
g----------------------------------------------------
d----------------------------------------------------
a----------2-2-2-2--------------------1---1---1---1-- x4
e--5-5-5-5---------1-1-3-3-1-1-3-3--3---3---3---3----

Outro x4
g--------------------------------------
d--------------------------------------
a-------------------------------------- 
e-5-0-5-0-5-0-5-0--1-0-1-0-1-0-1-0-----

g--------------------------------------
d--------------------------------------
a--------------------------------------
e--2-0-2-0-2-0-2-0--3-0-3-0-3-0-3-0----
Comments