Misc Unsigned Bands - Purple Fire - Flame Of Life Chords & Tabs

 

Purple Fire - Flame Of Life Chords & Tabs

Misc Unsigned Bands Chords & Tabs

Version: 1 Type: Tab 0 ratings
1 star 2 stars 3 stars 4 stars 5 stars
comments

Purple Fire - Flame Of Life Tab

tabbed by eddy123456       ITS A NEW BAND ABOUT TO BE FAMOUS.

      bASS STARTS THE INTRO.

intro bass:E-55555555--------33333333---------| only once.
           A---------33333333--------55555555-|
           G----------------------------------|
           D----------------------------------|
 THEN DRUMS KICK IN.
gtr.1 and gtr.2e-----------------------------------------------------|2 TIMES.
               B-----------------------------------------------------|
               G-----------------------------------------------------|
               D----------55555555----------77777777-----------------|
               A-77777777-33333333-55555555-55555555-----------------|
               E-55555555----------33333333--------------------------|

      BASS...       E-55----3-33-------------------------------------------|
 5 TIMES AT THE     A----33------55----------------------------------------|
SAME TIME AS GUITAR G------------------------------------------------------|
                    D------------------------------------------------------|

GUITAR SAME TIME AS BASS.
   GTR.1 AND GTR.2
           e----------------------------------------------------|
           B----------------------------------------------------| 5 TIMES.
           G----------------------------------------------------|
           D----55------77--------------------------------------|
           A-77-33-5-55-55--------------------------------------|
           E-55----3-33-----------------------------------------|
[ Tab from: http://www.guitartabs.cc/tabs/m/misc_unsigned_bands/purple_fire_flame_of_life_tab.html ]
    BASS.           PRETTY MUCH THE SAME.
5 TIMES SAME TIME AS GUITAR
           E-55----3-33-------------------------------------| DONT LET IT RING
           A----55------33----------------------------------|
           G------------------------------------------------|
           D------------------------------------------------|

      GTR.1 AND GTR.2 SAME TIME AS BASS.

     e------------------------------------------------|
     B------------------------------------------------|
     G------------------------------------------------|
     D----55-3-33-------------------------------------|  LET IT RING.
     A-55-55-3-33-33----------------------------------|
     E-55---------33----------------------------------|

  GTR.1  DOES A SLIDE ON E AND A SAME TIME.

    AND SAME THING AS ABOVE  ONCE MORE THEN THE SOLO.

   GTR.1 SOLO
                   x2 x3
   e---------------  |--------------------------------|
   B---------------  |--------------------------------|
   G---------------  |--------------------------------|
   D---4-5----77---  |----44-555----77----------------|
   A-7-2-3-55-55---  |-77-22-333-55-55----------------|
   E-5-----33------  |-55--------33-------------------|

  BASS INTRO AGAIN.

     E-55555555----------33333333--------------|
     A----------33333333---------55555555------|
     D-----------------------------------------|
     G-----------------------------------------|

 BASS SAME TIME AS GUITAR.

     E-55555555----------33333333--------------| x2
     A----------33333333---------55555555------|
     D-----------------------------------------|
     G-----------------------------------------|

   GUITAR SAME TIME AS BASS.

GTR.1AND GTR.2 e-----------------------------------------------------|
               B-----------------------------------------------------|
               G-----------------------------------------------------|
               D----------55555555----------77777777-----------------|
               A-77777777-33333333-55555555-55555555-----------------|
               E-55555555----------33333333--------------------------|

 LET IT RING FOR FIVE SECONDS THEN MUTE IT. AND THE SONG IS OVER.
Comments